>
 >
Barkada

Barkada Guitar Tabs

Shamrock - Barkada chords, tabs, tablatures, lyrics

Guitar lessons | Add/correct | Request | Top 50 tabs Artists:  A B C D E F G H I J K L M N O P Q R S T U V W X Y Z 0-9

Barkada Guitar Tabs – Shamrock

CD, Sheet music, Poster

Do you like Barkada? Share with your friends now
Tabs

Intro: A-D-A-D-A-D-Bm(hold)-A(hold)-E(hold)
(electric guitar)
e-------------------------|I
b--10-10-/12-10-10--------|I
g--------------9----------|I
d-------------------------|I
a-------------------------|I
E-------------------------|I
(6x)

e-------------------------------------------------|I
b--10-10-/12-10----7(hold)---6(hold)--4(hold)-----|I
g--------------9---9(hold)---7(hold)--2(hold)-----|I
d-------------------------------------------------|I
a-------------------------------------------------|I
E-------------------------------------------------|I

bass:

e------------------------------------------------------------------------|I
b------------------------------------------------------------------------|I
g---------------------------4--------------------------------------------|I
d--------------------------7-7-5-----------------------------------------|I
a--------5-5-555-------5-5------5-------5-5------------------------------|I
E--55-75---------55-75------------55-75-----10(hold)--9(hold)--7(hold)---|I

verse:

(electric guitar)
e------------------------------------------------------------------------|I
b------------------------------------------------------------------------|I
g------------------------------------------------------------------------|I
d------------------------------------------------88--6-7-9---------------|I
a--7777-1212-12121212-7777-12-12-12121212-99-999-77--7-7-7---------------|I
E--5555-1010-10101010-5555-10-10-10101010-77-777-------------------------|I
(2x)

bass:

e------------------------------------------------------------------------|I
b------------------------------------------------------------------------|I
g------------------------------------------------------------------------|I
d------------------------------------------------------------------------|I
a--------5-5-555-------5-5-555-------------------------------------------|I
E--55-75---------55-75---------7777-55-55-00...--------------------------|I

e------------------------------------------------------------------------|I
b------------------------------------------------------------------------|I
g---------------------------4--------------------------------------------|I
d--------------------------7-7-5-----------------------------------------|I
a--------5-5-555-------5-5------5----------------------------------------|I
E--55-75---------55-75------------7777-55-55-00...-----------------------|I

  A                  D     A               D
Simula pa nang pagkabata tayo'y musmos pa lamang
Bm                  A         E
Ikaw na ang laging nais na makasama
     A         D     A           D
Sa pagmulat ng mata nagising sa umaga
Bm         A            E
Kumakatok ako'y sinusundo na...

refrain: (use power chords here)
Bm
habulan  sa daanan
             A             Bm          E
tampisaw sa ulan hinding hindi malilimutan...

Chorus:
 A                D       Bm        E
Kapag kasama ang barkada siguradong masaya
A            D           Bm          E
May tawanan at sayawan hanggang mag-umaga
       Bm                 A
Kahit minsan ay mayroong iyakan
       Bm                 A
May pangakong hindi mag-iiwanan
      Bm            E            A-D-A-D-A-D-Bm-A-E
Hahanapin ang kalayaan, sama ka ba?

(electric guitar)
e-----------------------|I
b--10-10-/12-10-10------|I
g--------------9--------|I
d-----------------------|I
a-----------------------|I
E-----------------------|I
(6x)

e---------------------------------------------------|I
b--10-10-/12-10----77(hold)---6(hold)--4(hold)------|I
g--------------9---99(hold)---7(hold)--2(hold)------|I
d---------------------------------------------------|I
a---------------------------------------------------|I
E---------------------------------------------------|I

bass:

e--------------------------------------------------------------------------|I
b--------------------------------------------------------------------------|I
g---------------------------4----------------------------------------------|I
d--------------------------7-7-5-------------------------------------------|I
a--------5-5-555-------5-5------5-------5-5--------------------------------|I
E--55-75---------55-75------------55-75-----1010(hold)--9(hold)--7(hold)---|I

  A            D           A        D
Sama-sama sa gimik para bawal ang tahimik
 Bm          A           E
Tawanan sa mukha ay may ngiti
       A          D     A       D
Pag umaakyat ng ligaw lahat ay nakadungaw
Bm           A        E
Naaaliw sa kanilang sinisilip

refrain: (use power chords here)
               Bm                  A
kay lalim ng samahan kailanman ay laging nandiyan
          Bm          E
hinding hindi malilimutan...

Chorus:
 A                D       Bm        E
Kapag kasama ang barkada siguradong masaya

e----7------|I
b---7-9-7---|I
g--9--------|I
d-----------|I
a-----------|I
E-----------|I

A            D           Bm          E
May tawanan at sayawan hanggang mag-umaga

e------77--|I
b--7-9-----|I
g----------|I
d----------|I
a----------|I
E----------|I

       Bm                 A
Kahit minsan ay mayroong iyakan
       Bm                 A
May pangakong hindi mag-iiwanan
      Bm            E          (adlib)A-D-A-D-A-D
Hahanapin ang kalayaan, sama ka ba?

adlib:

e-------------------------------------------|I
b--10-10-/12-10---10-10-10-/12--1010--------|I
g---------------9---------------------------|I
d-------------------------------------------|I
a-------------------------------------------|I
E-------------------------------------------|I
(3x)

Bridge:
         Bm     A    E...
basta't kasama ka masaya

(chorus)

Chorus 2:
 A                D       Bm          E
Kapag kasama ang barkada tanggal ang problema
A           D           Bm          E
May inuman at kantahan hanggang mag-umaga
       Bm                 A
Kahit minsan ay mayroong iyakan
       Bm                 A
May pangakong hindi mag-iiwanan
      Bm            E            A(hold)
Hahanapin ang kalayaan, sama ka ba?

[fin]

...I dedicate this song to all my repapips here in olongapo!...john archide...francis 
advincula...





Comments


Popular Shamrock tabs & chords
Alipin Bass Tabs
Just A Smile Away Chords
Nandito Lang Ako Chords
Sana 3 Chords
Naaalala Ka Intro Tabs
Okey Lang Tabs
Pagkakataon Tabs
Alipin Ukulele
Magtiwala Ka Ukulele
Sana 2 Ukulele


Song lyrics



↑ Back to top | Tablatures and chords are parodies/interpretations of the original songs. You may use it for private study, scholarship, research or language learning purposes only
© 2014 AZChords.com Contact us | Privacy policy | DMCA | Add/correct tabs | Request tabs | Top 50 tabs