» » »

Shadows, Stingray Tabs (ver.1)

Artists:  A B C D E F G H I J K L M N O P Q R S T U V W X Y Z # 

Stingray Tabs (ver.1)

Shadows Tabs
Rating:
0/5 (0 votes)
Stingray lessons Tabs too difficult? Try these video lessons and learn fast
                A7	    A7  D7  F7   G7  A7

-------------------------------|----------------------------------------------
-------------------------------|----------------------------------------------
-------------------------0---2-|----------------------------------------------
--2-0-----------0---3----------|----------------------------------------------
-------3-2--0------------------|----------------------------------------------
-------------------------------|----------------------------------------------

A7	     D7   E7      A7              D7    E7      A7  
----------------------------|-------------------------------------------------
----------------------------|-------------------------------------------------
----------------------------|-------------------------------------------------
-------0-2-2-0----2---------|------0-2--2-0---0-2-----------------------------
---0------------------3b--0-|---0-------------------3b--0---------------------
-3--------------------------|-3-----------------------------------------------
                                                                              

         D7       A7          B7   		Both guitars play the melody 
---------------------------------|-------------|------------------------------
---------------------------------|-------------|------------------------------
------------------2-------2------|-------------|------------------------------
---------0----2h4----------------|--2-2--4b-4b-|-2-2-0-1-2--------------------
-0--2-4--------------0------0-2--|-------------|------------------------------
---------------------------------|-------------|------------------------------
                                                                              

 A7         D7   E7              A7            D7   E7           A7    
-----------------------------------|------------------------------------------
-----------------------------------|------------------------------------------
-0-2-----------------0-2-0---------|-0-2--------------------------------------
------0-2-2-0--0-2---------2-0-----|-----0-2-2-0--0-2---2---------------------
-------------------------------3-0-|----------------------3b-3b-0-------------
-----------------------------------|------------------------------------------
                                                                              

Both guitars play the melody, but one plays it on octave higher.
------------------------------------|-----------------------------------------
------------------------------------|-----------------------------------------
--------0-----------------0---------|-------0--------------0------------------
----2-4--4-2-4--------2-4---4-2-4---|---2-4---4-2-4----2-4---4-2-4------------
-0-------------0---0--------------0-|-0--------------0------------------------
------------------------------------|-----------------------------------------
                                                                              
                         D7     A7       B7  		B. g. p. t. m. 
-----------------|-------------------------|------------|---------------------
-----------------|-------------------------|------------|---------------------
-------0---------|--------------2----2-----|------------|---------------------
---2-4---4-2-4---|-------0--2h4------------|-2-2--4b-4b-|-2-2--0-1-2----------
-0-------------0-|-0-2-4----------0----0-2-|------------|---------------------
-----------------|-------------------------|------------|---------------------
                                                                              

A7          D7   E7   A7            D7    E7            A7  E7
----------------------------------------------------------|-------------------
----------------------------------------------------------|-------------------
-------------------------0-2------------------------------|-------------------
------0-2-2-0--0-2------------0-2-2-0---0-2---------------|----0-1-2----------
---0----------------3-0-----------------------0-0-3b-3b-0-|--4----------------
-3--------------------------------------------------------|-------------------
                                                                              

  E7          A7    E7                    A7 D7   F7  G7  A7
----------------------------|-------------------------------------------------
----------------------------|-------------------------------------------------
--0-2-0---------------------|-0-2-0-------------------0---2-------------------
--------2-0-----------0-1-2-|-------2-0-------0---3---------------------------
------------3-0-----4-------|-----------3-0-----------------------------------
----------------------------|-------------------------------------------------
            
Submit corrections

comments powered by Disqus
↑ Back to top | Shadows Tabs for Stingray. Lyrics for acoustic guitar and electric guitar. Tablatures and chords are parodies/interpretations of the original songs. You may use it for private study, scholarship, research or language learning purposes only