» » »

Pretty Vacant Bass tabs (ver.1)

Artists:  A B C D E F G H I J K L M N O P Q R S T U V W X Y Z # 

Pretty Vacant Bass tabs (ver.1)

Sex Pistols
Rating:
0/5 (0 votes)

Hard to play? Try these video lessons and learn fast.
                Standard Tuning (G,D,A,E)

Riff 0
This is the Intro,just hit the

|E|-5-  note as many times it fits

Riff 1
--------------------------
--------------------------
-------5-5-5-7-7-7--------
-5-5-5------------5--5-5--

Riff 1 (Continued...)
---------------------------------
---------------------------------
-0-0-0-0-0-0-0-0-9-9-9-9-9-9-9-9-
---------------------------------

Riff 2
-------------------------
-------------------------
-0-0-0-0-0-0-0-0-0-0-0-0-
-------------------------

Riff 3
-----------------------------------
-----------------------------------
-4-5-5-5-5-5-5-5-------------------
----------------6-8-8-8-8-8-8-8-8-5
                                  ^x16

Riff 4
-------------------
-------------------
-------------------
-3-3-3-3-3-3-3-3-3-

Riff 5
--------------------
--------------------
-9-9-9-9-9-9-5-5----
--------------------

Song Structure
--------------
Riff 0 - x? (Intro)
Riff 1 - x2
Riff 2 - x1
Riff 3 - x2
Riff 1 - x2
Riff 2 - x1
Riff 3 - x3
Riff 4 - x1
Riff 0 - x? (Bridge)
Riff 1 - x2
Riff 2 - x1
Riff 3 - x3
Riff 4 - x1
Riff 5 - xmany :)
            
Hard to play? Try these video lessons and learn fast. | Correct




comments powered by Disqus
↑ Back to top | Tablatures and chords are parodies/interpretations of the original songs. You may use it for private study, scholarship, research or language learning purposes only