» » »

Sex Pistols, No Lip Bass tabs (ver.1)

Artists:  A B C D E F G H I J K L M N O P Q R S T U V W X Y Z # 

No Lip Bass tabs (ver.1)

Sex Pistols Tabs
 Rating:
4/5 (4 votes)
No Lip lessons Tabs too difficult? Try these video lessons and learn fast
                this is a song from the cd "the great rock and roll swindle" and is on a lot of live cd's. i like the song a lot, it took me a while to learn, but once you do, its really easy.

INTRO/BRIDGE
G-------------------------------------
D-------------------------------------
A---567-------44--455------------------------
E--5-----00--0---------------------------

VERSE PART ONE
G--------------------------------------
D--------------------------------------
A--------------------------------------
E---00---22---23---022-------------------------

VERSE PART TWO
G--------------------------------------
D----22---24-----45--544------------------------
A--------------------------------------
E--------------------------------------


CHORUS
G----------------------------------------------------------
D-------------------------------------------------55---------
A----5-555------7757--------777757---777757---7775-------------
E---------------------5-55---------------------------0------

AFTER THE CHORUS YOU START UP THE INTRO/BRIDGE ONLY IN THE MIDDLE OF IT, IT SWITCHES TO THE VERSE PART ONE
EXAMPLE (STARTS WHEN JOHNNY SAYS GIMME)

OH DON'T YOU GIMME NO LIP CHILD
G----------------------------------------
D----------------------------------------
A-------------567------------------------
E------------5-----00---22---24---22-----

ON THE SOLO YOU CAN JUST PLAY THE INTRO/BRIDGE PART, ITS A LITTLE TRICKY TO GET THE TIMING AND RTHYM AT FIRST, BUT YOU'LL CATCH ON

OH DONT YOU GIMME NO LIP CHILD! I MEAN WHAT I SAY!!!!!!!

have fun

matt
            
Submit corrections

comments powered by Disqus
↑ Back to top | Sex Pistols Bass for No Lip. Lyrics for acoustic guitar and electric guitar. Tablatures and chords are parodies/interpretations of the original songs. You may use it for private study, scholarship, research or language learning purposes only