» » »

Sex Pistols, No Feelings Tabs (ver.1)

Artists:  A B C D E F G H I J K L M N O P Q R S T U V W X Y Z # 

No Feelings Tabs (ver.1)

Sex Pistols Tabs
Rating:
0/5 (0 votes)
No Feelings lessons Tabs too difficult? Try these video lessons and learn fast
                





2 times
|------------------------------------|
|------------------------------------|
|------------------------------------|
|------------------------------------|
|-2--4-4--7-7--9-9--2--4-4--7-7--9-9-|
|-0--2-2--5-5--7-7--0--2-2--5-5--7-7-|


|-----------------------------------------------|
|-----------------------------------------------|
|-----------------------------------------------|
|---9---9-9---9--9---9-9---9-9---9-9------------|
|---7---7-7---7--7---7-7---7-7---7-7--7-7-7-7-7-|
|-0---0-----0------0-----0-----0------5-5-5-5-5-|

verse
repeat
|----------------------------------------|
|----------------------------------------|
|----------------------------------------|
|---9------9---9-9-------9---9-9-------9-|
|---7------7---7-7-------7---7-7-------7-|
|-0--0-0-0---0-----0-0-0---0-----0-0-0---|

|-------------------------------------------------------------|
|-------------------------------------------------------------|
|-------------------------------------------------------------|
|-------------------------------------------------------------|
|--7--7-7-7-7-7--4--4-4-4-4-4-4--9--9-9-9-9-9--9--9-9-9-9-9-9-|
|--5--5-5-5-5-5--2--2-2-2-2-2-2--7--7-7-7-7-7--7--7-7-7-7-7-7-|

repeat
|----------------------------------------|
|----------------------------------------|
|----------------------------------------|
|---9------9---9-9-------9---9-9-------9-|
|---7------7---7-7-------7---7-7-------7-|
|-0--0-0-0---0-----0-0-0---0-----0-0-0---|

|-------------------------------------------------------------|
|-------------------------------------------------------------|
|-------------------------------------------------------------|
|-------------------------------------------------------------|
|--7--7-7-7-7-7--4--4-4-4-4-4-4--9--9-9-9-9-9--9--9-9-9-9-9-9-|
|--5--5-5-5-5-5--2--2-2-2-2-2-2--7--7-7-7-7-7--7--7-7-7-7-7-7-|

no feelings
repeat
|---------------------------------------|
|---------------------------------------|
|---------------------------------------|
|---------------------------------------|
|--7--7-7-7-7-7-7-7---9--9-9-9-9-9--9-9-|
|--5--5-5-5-5-5-5-5---7--7-7-7-7-7--7-7-|


|--------------------------------------------------|
|--------------------------------------------------|
|--------------------------------------------------|
|---9---9-9---9--9---9-9---9-9---9-9---------------|
|---7---7-7---7--7---7-7---7-7---7-7--7-7--2-2-2-2-|
|-0---0-----0------0-----0-----0------5-5--0-0-0-0-|

verse
repeat
|----------------------------------------|
|----------------------------------------|
|----------------------------------------|
|---9------9---9-9-------9---9-9-------9-|
|---7------7---7-7-------7---7-7-------7-|
|-0--0-0-0---0-----0-0-0---0-----0-0-0---|

|-------------------------------------------------------------|
|-------------------------------------------------------------|
|-------------------------------------------------------------|
|-------------------------------------------------------------|
|--7--7-7-7-7-7--4--4-4-4-4-4-4--9--9-9-9-9-9--9--9-9-9-9-9-9-|
|--5--5-5-5-5-5--2--2-2-2-2-2-2--7--7-7-7-7-7--7--7-7-7-7-7-7-|

repeat
|----------------------------------------|
|----------------------------------------|
|----------------------------------------|
|---9------9---9-9-------9---9-9-------9-|
|---7------7---7-7-------7---7-7-------7-|
|-0--0-0-0---0-----0-0-0---0-----0-0-0---|

|-------------------------------------------------------------|
|-------------------------------------------------------------|
|-------------------------------------------------------------|
|-------------------------------------------------------------|
|--7--7-7-7-7-7--4--4-4-4-4-4-4--9--9-9-9-9-9--9--9-9-9-9-9-9-|
|--5--5-5-5-5-5--2--2-2-2-2-2-2--7--7-7-7-7-7--7--7-7-7-7-7-7-|

no feelings
repeat
|---------------------------------------|
|---------------------------------------|
|---------------------------------------|
|---------------------------------------|
|--7--7-7-7-7-7-7-7---9--9-9-9-9-9--9-9-|
|--5--5-5-5-5-5-5-5---7--7-7-7-7-7--7-7-|

|--------------------------------------------------|
|--------------------------------------------------|
|--------------------------------------------------|
|---9---9-9---9--9---9-9---9-9---9-9---------------|
|---7---7-7---7--7---7-7---7-7---7-7--7-7--2-2-2-2-|
|-0---0-----0------0-----0-----0------5-5--0-0-0-0-|


solo
|----0-0----0-0-----0-----2-2----2-2-----------------------------------------------------|
|----0-0----0-0-----0-----2-2----2-2----2--2-4-4--2-4-4--2-4-4--2-4-4--2-----------------|
|-2b-----2b------2b----4b-----4b-----4b----2-4-4--2-4-4--2-4-4--2-4-4--2-----------------|
|-------------------------------------------------------------------------5b---5b---5b---|
|----------------------------------------------------------------------------7----7----7-|
|----------------------------------------------------------------------------------------|

|--------------------------------------------|
|--------------2-4-4--2-4-4--2-4-4--2-4-4--2-|
|-5b---5-7-----2-4-4--2-4-4--2-4-4--2-4-4--2-|
|----7-----7---------------------------------|
|--------------------------------------------|
|--------------------------------------------|

|----0-0----0-0-----0-----2-2----2-2--------------------------------------|
|----0-0----0-0-----0-----2-2----2-2----2---------------------------------|
|-2b-----2b------2b----4b-----4b-----4b-----------------------------------|
|-------------------------------------------------------------------------|
|-------------------------------------------7--9-9--7-9-9--7-9-9--7-9-9-7-|
|-------------------------------------------5--7-7--5-7-7--5-7-7--5-7-7-5-|

|----0-0----0-0-----0-----2-2----2-2-------------------------------------|
|----0-0----0-0-----0-----2-2----2-2----2--------------------------------|
|-2b-----2b------2b----4b-----4b-----4b----0h2p0h2p0h2p0h2p0h2p0h2p0h2p0-|
|------------------------------------------------------------------------|
|------------------------------------------------------------------------|
|------------------------------------------------------------------------|

verse
repeat
|----------------------------------------|
|----------------------------------------|
|----------------------------------------|
|---9------9---9-9-------9---9-9-------9-|
|---7------7---7-7-------7---7-7-------7-|
|-0--0-0-0---0-----0-0-0---0-----0-0-0---|

|-------------------------------------------------------------|
|-------------------------------------------------------------|
|-------------------------------------------------------------|
|-------------------------------------------------------------|
|--7--7-7-7-7-7--4--4-4-4-4-4-4--9--9-9-9-9-9--9--9-9-9-9-9-9-|
|--5--5-5-5-5-5--2--2-2-2-2-2-2--7--7-7-7-7-7--7--7-7-7-7-7-7-|

repeat
|----------------------------------------|
|----------------------------------------|
|----------------------------------------|
|---9------9---9-9-------9---9-9-------9-|
|---7------7---7-7-------7---7-7-------7-|
|-0--0-0-0---0-----0-0-0---0-----0-0-0---|

|-------------------------------------------------------------|
|-------------------------------------------------------------|
|-------------------------------------------------------------|
|-------------------------------------------------------------|
|--7--7-7-7-7-7--4--4-4-4-4-4-4--9--9-9-9-9-9--9--9-9-9-9-9-9-|
|--5--5-5-5-5-5--2--2-2-2-2-2-2--7--7-7-7-7-7--7--7-7-7-7-7-7-|

no feelings
repeat
|---------------------------------------|
|---------------------------------------|
|---------------------------------------|
|---------------------------------------|
|--7--7-7-7-7-7-7-7---9--9-9-9-9-9--9-9-|
|--5--5-5-5-5-5-5-5---7--7-7-7-7-7--7-7-|


|------------------------------------|
|------------------------------------|
|------------------------------------|
|---9---9-9---9--9---9-9---9-9---9-9-|
|---7---7-7---7--7---7-7---7-7---7-7-|
|-0---0-----0------0-----0-----0-----|

no feelings
|---------------------------------------|
|---------------------------------------|
|---------------------------------------|
|---------------------------------------|
|--7--7-7-7-7-7-7-7---9--9-9-9-9-9--9-9-|
|--5--5-5-5-5-5-5-5---7--7-7-7-7-7--7-7-|

|------------------------------------------------|
|------------------------------------------------|
|------------------------------------------------|
|---9---9-9---9--9---9-9---9-9---9-9-------------|
|---7---7-7---7--7---7-7---7-7---7-7--7-7--2--2--|
|-0---0-----0------0-----0-----0------5-5--0--0--|
            
Submit corrections

comments powered by Disqus
↑ Back to top | Sex Pistols Tabs for No Feelings. Lyrics for acoustic guitar and electric guitar. Tablatures and chords are parodies/interpretations of the original songs. You may use it for private study, scholarship, research or language learning purposes only