>
 >
New York

New York Bass Tabs

Sex Pistols - New York chords, tabs, tablatures, lyrics

Guitar lessons | Add/correct | Request | Top 50 tabs Artists:  A B C D E F G H I J K L M N O P Q R S T U V W X Y Z 0-9

New York Bass Tabs – Sex Pistols

CD, Sheet music, Poster

Do you like New York? Share with your friends now
Bass TabsDrum TabsTabsTabs v2
!!!!!!!!!!!!!!!!!!!!!!!!!!!!!!!!!!!!!!!!!!!!!!!!!!!!!!!!!!!!!!!!!!!!!!!!!!!!!!!
New York - Sex Pistols
!!!!!!!!!!!!!!!!!!!!!!!!!!!!!!!!!!!!!!!!!!!!!!!!!!!!!!!!!!!!!!!!!!!!!!!!!!!!!!!


(standard tuning)

INTRO

G--------------------------------------------------------|
D-----------------3-3-3-3-3-3-3-3-3-3-3-3-3-3-3-3--------|
A---------1-1-1------------------------------------------|
E---3-3-3------------------------------------------------|

G------------------------------------------------------|
D------------------------------------------------------|
A---33333333333333333333333333333333-------------------|
E------------------------------------------------------|

VERSES

G-------------------------------------------------------------------------------------|
D-------------------------------------------------------------------------------------|
A---3-3-3-3-1-1-1-1-3-3-3-3-1-1-1-1-3-3-3-3-1-1-1-1-3-3-3-3-1-1-1-1-------------------|
E-------------------------------------------------------------------------------------|

G------------------------------------------------------------------------------------|
D---------------------------------------------------------------1-1-1----------------|
A---3-3-3-3-1-1-1-1-3-3-3-3-1-1-1-1-3-3-3-3-1-1-1-1---------3-3-3-3------------------|
E------------------------------------------------------------------------------------|

CHORUS

G----------------------------------------------------------------------------|
D---3-3-3-3-2-3-3-3-2-3-3-3-2-3-3-----------------3-LET RING-----------------|
A-------------------------------------------------1-1-1----------------------|
E------------------------------------------3-3-3-----------------------------|

G-------------------------------------------------------------------------------------|
D-------------------------------------------------------------------------------------|
A---3-3-3-3-1-1-1-1-3-3-3-3-1-1-1-1-3-3-3-3-1-1-1-1-3-3-3-3-1-1-1-1-------------------|
E-------------------------------------------------------------------------------------|

Play the verses again, and then the chorus.


BRIDGE

G---------------------------------------------------------------------------------|
D---3-3-3-3-1-1-1-1-------------------3-3-3-3-1-1-1-1-----------------------------|
A-----------------------3-3-3-------------------------------3-3-3-----------------|
E-------------------------------4-4-4-4-----------------------------4-4-4-4-------|

G-------------------------------------------------------------------------|
D---3-3-3-3-1-1-1-1-------------------------------------------------------|
A-----------------------3-3-3---------------------------------------------|
E-------------------------------4-4-4-4-1-1-1-1-1-1-1-1-3-3-3-3-3-3-3-3---|

G--------------------------------------------------------------------|
D--------------------------------------------------------------------|
A---3-3-3-31-1-1-1-3-3-3-3-1-1-1-1-3-3-3-3-1-1-1-1-3-3-3-3-1-1-1-1---|
E--------------------------------------------------------------------|

Play verses again.

CHORUS #2

G-----------------------------------------------------------------------------------|
D-----------------------------------------------------------------------------------|
A---3-3-3-3-2-3-3-3-2-3-3-3-2-3-3-1-1-1---------------------------------------------|
E-------------------------------------------------3-3-3-3-1-3-3-3-1-3-3-3-1-3-3-3---|

G-------------------------------------------------------|
D-------------3-3-3-3-3-3-3-3-3-3-3-3-3-3-3-3-----------|
A---1-1-1-1---------------------------------------------|
E-------------------------------------------------------|

OUTRO

G-----------------------------------------------------------------------------|
D-------------3-3-3-3-----------3-3-3-3-----------3-3-3-3-----------3-3-3-3---|
A---3-3-3-3-----------3-3-3-3-----------3-3-3-3-----------3-3-3-3-------------|
E-----------------------------------------------------------------------------|   (x5)

!!!!!!!!!!!!!!!!!!!!!!!!!!!!!!!!!!!!!!!!!!!!!!!!!!!!!!!!!!!!!!!!!!!!!!!!!!!!!!!!!!!!!





Comments


Popular Sex Pistols tabs & chords
Anarchy In The Uk 3 Bass Tabs
I Wanna Be Me Bass Tabs
Somethin Else 2 Bass Tabs
Belsen Was A Gas Chords
Holidays In The Sun Chords
God Save The Queen Tabs
Holidays In The Sun 1 Tabs
Holidays In The Sun 2 Tabs
Streets Of London Intro 1 Tabs
Friggin In The Riggin Ukulele


Song lyrics



↑ Back to top | Tablatures and chords are parodies/interpretations of the original songs. You may use it for private study, scholarship, research or language learning purposes only
© 2014 AZChords.com Contact us | Privacy policy | DMCA | Add/correct tabs | Request tabs | Top 50 tabs