>
 >
Holidays In The Sun 1

Holidays In The Sun 1 Bass Tabs

Sex Pistols - Holidays In The Sun 1 chords, tabs, tablatures, lyrics

Guitar lessons | Add/correct | Request | Top 50 tabs Artists:  A B C D E F G H I J K L M N O P Q R S T U V W X Y Z 0-9

Holidays In The Sun 1 Bass Tabs – Sex Pistols

CD, Sheet music, Poster

Do you like Holidays In The Sun 1? Share with your friends now
Bass TabsBass Tabs v2ChordsTabsTabs v2Tabs v3Tabs v4Ukulele
9(Song: Holidays in the Sun
Band: The Sex Pistols
Album\CD: Nevermind the Bollocks.....
Bassist: Steve Jones

I found some of the other versions of this song either confusing to follow of just 
 Also while not offended, I'm not a dude but, I guess, a dudette.  Hope this doesn't affect 
using my tabs.:)


INTRO 1

G--------------------------------------------------------------------------|
D--------------------------------------------------------------------------|
A--5----5-----5-----5------------------------------------------------------|
E--------------------------------------------------------------------------|


INTRO 2

G--------------------------------------------------------------------------|
D--------------------------------------------------------------------------|
A--3-3-2-2-0-0-0-------3-3-2-2-0-0-0------3-3-2-2-0-0-0------3-3-2-2-0-0-0-|
E---------------3(8X)----------------3(8X)---------------3(8X)-------------|

G--------------------------------------------------------------------------|
D--------------------------------------------------------------------------|
A--3-3-2-2-0-0-0--------2*-------------------------------------------------|
E----------------3(16X)----------------------------------------------------|


VERSE

G--------------------------------------------------------------------------|
D--------------------------------------------------------------------------|
A------------2-3-2------------2-3-2----------2-3-2-----------2-3-2---------|
E---3(11X)--3-------3(11X)--3-------3(11X)--3------3(11X)--3---------------|

CHORUS

G--------------------------------------------------------------------------|
D--------------------------------------------------------------------------|
A--3(16X)---5(16X)-----3(16X)----5(16X)------------------------------------|
E--------------------------------------------------------------------------|


BRIDGE

G---------------------------------------------------------------------------|
D---------------------------------------------------------------------------|
A----------5(8X)----------5(8X)-----------5(8X)--------------5(8X)----------|
E--5(8X)-----------5(8X)---------5(8X)---------------5(8X)------------------|

BRIDGE (CONTINUED)

G---------------------------------------------------------------------------|
D-----------5(8X)-----------------------5(8X)-------------------------------|
A--7(8X)------------------------7(8X)--------------------5(MULTI)-----------|
E--------------------5(16X)----------------------5(16X)---------------------|


OUTRO

G---------------------------------------------------------------------------|
D---------------------------------------------------------------------------|
A----------2-3-2------------------------------------------------------------|
E---3(11X)3------3----------------------------------------------------------|


SONG STRUCTURE

INTRO 1 1X (LET EACH NOTE RING)
INTRO 2 ** THIS IS THE ONLY TIME WHEN YOU PLAY THE A2
VERSE 1X
CHORUS 1X
INTRO 2 1X
VERSE 1X
CHORUS 1X
INTRO 2 1X
BRIDGE 1X
CHORUS 1X
INTRO 2 8X
OUTRO 1X

IF YOU NOTICE, THE LAST 2 PARTS OF THE SONG IS JUST INTRO 2 WITH A PART OF THE VERSE 
IMMEDIATELY AFTER.  WATCH HOW MANY TIMES YOU PLAY THE E3.  SINCE INTRO 2 FINISHES ON E3 AND 
STARTS ON E3 IT GETS A LITTLE CONFUSING HOW MANY TIMES YOU PLAY THE NOTE.





Comments


Popular Sex Pistols tabs & chords
Bodies 2 Bass Tabs
No Lip 2 Bass Tabs
C’Mon Everybody Tabs
E.M.I 1 Tabs
God Save The Queen 1 Tabs
Great Rock And Roll Swindle Tabs
Jingle Bells Tabs
Revolution In The Classroom Tabs
Satellite Tabs
Lonely Boy Ukulele


Song lyrics



↑ Back to top | Tablatures and chords are parodies/interpretations of the original songs. You may use it for private study, scholarship, research or language learning purposes only
© 2014 AZChords.com Contact us | Privacy policy | DMCA | Add/correct tabs | Request tabs | Top 50 tabs