» » »

Sex Pistols, Holiday In The Sun Tabs (ver.1)

Artists:  A B C D E F G H I J K L M N O P Q R S T U V W X Y Z # 

Holiday In The Sun Tabs (ver.1)

Sex Pistols Tabs
 Rating:
4/5 (9 votes)
Holiday In The Sun lessons Tabs too difficult? Try these video lessons and learn fast
1
                Intro
e|--------------------------------------------------------------------------|
B|--------------------------------------------------------------------------|
G|-7-------------7------------7-----------7---------------------------------|
D|-7-------------7------------7-----------7----------->>pickslide-----------|
A|-5-------------5------------5-----------5---------------------------------|
E|---------------------------------------------------------------------------

Riff A
e|---------------------------------------------------------------------|
B|---------------------------------------------------------------------|
G|-5-5-4-4----------------5-5-4-4--------------------------------------|
D|-5-5-4-4-7-7-5--5--5-7--5-5-4-4-7-7--5--))Let------------------------|
A|-3-3-2-2-7-7-5--5--5-7--3-3-2-2-7-7--5--))Ring-----------------------|
E|---------5-5-3--3--3-5----------5-5--3-------------------------------|
  /----- 3 times -------/

Verse
e|-----------------------------------------|Palm
B|-----------------------------------------|muted
G|-----------------------------------------|
D|-5-5-5-5-5-5-5-5-5-5-5-------------------|
A|-5-5-5-5-5-5-5-5-5-5-5-0-2-3-2-0---------|
E|-3-3-3-3-3-3-3-3-3-3-3-------------------|

Chorus   /=slide
e|------------------------------------|
B|------------------------------------|
G|-4/5-5-5-4/5-5-5--6/7-7-7-6/7-7-7---|
D|-4/5-5-5-4/5-5-5--6/7-7-7-6/7-7-7---|
A|-2/3-3-3-2/3-3-3--4/5-5-5-4/5-5-5---|
E|------------------------------------|
  /-- 2 times----/ /-- 2 times----/

Riff B
e|-------10-9-7-------|
B|--------------------|Something like that. Figure out what sounds right.
G|-9------------9-----|
D|--------------------|
A|--------------------|
E|--------------------|

Riff C
e|----------------------------------------------------------------|
B|----------------------------------------------------------------|
G|9-9-9-9-9-9-9-9-------------------------------------------------|
D|9-9-9-9-9-9-9-9-5-5-5-5-5-5-5-5-6/7-7-7-6/7-7-7-6/7-7-7-6/7-7-7-|
A|7-7-7-7-7-7-7-7-5-5-5-5-5-5-5-5-6/7-7-7-6/7-7-7-6/7-7-7-6/7-7-7-|
E|----------------3-3-3-3-3-3-3-3-4/5-5-5-4/5-5-5-4/5-5-5-4/5-5-5-|

on the solo just mess around with 9 and 10 on the bottom two strings

Outro
e|------------------------|
B|------------------------|
G|-5-5-4-4----------------|
D|-5-5-4-4-7-7-5--5--5-7--|
A|-3-3-2-2-7-7-5--5--5-7--|
E|---------5-5-3--3--3-5--|

Intro
Riff A
Verse x4
Chorus x2
Riff A
Verse x4
Chorus x2
Riff A
Riff B
Riff C
solo
Chorus x2
Outro x8
end on A
            
Submit corrections

comments powered by Disqus
↑ Back to top | Sex Pistols Tabs for Holiday In The Sun. Lyrics for acoustic guitar and electric guitar. 1 Tablatures and chords are parodies/interpretations of the original songs. You may use it for private study, scholarship, research or language learning purposes only