» » »

Sentenced, The War Aint Over Bass tabs (ver.1)

Artists:  A B C D E F G H I J K L M N O P Q R S T U V W X Y Z # 

The War Aint Over Bass tabs (ver.1)

Sentenced Tabs
 Rating:
4/5 (4 votes)
The War Aint Over lessons Tabs too difficult? Try these video lessons and learn fast
                tune down

F#||-----------------------------------|----------------------------------|
C#||-----------------------------------|----------------------------------|
G#||-----------------------------------|----------------------------------|
D#||--0--------------------------------|----------------------------------|


                                                                             
-----------------------------------|--------------------|--7----------------|
-----------------------------------|---------------5/---|---------7---------|
--3--------------------------------|--5-----------------|-------------------|
-----------------------------------|--------------------|--------------1/---|


                                                                            
-----------------------------------|---------------------------------------|
-----------------------------------|---------------------------------------|
-----------------------------------|---------------------------------------|
--5--------------------------------|--0--------------------------0-0-0--0--|


                                                                         
-----------------------------------|------------------------------------|
-----------------------------------|------------------------------------|
-----------------------------------|------------------------------------|
--0--------------------------------|------5--5--------------------------|


                                                    
---------------------------------------------------|
---------------------------------------------------|
-----------------------------7----5--3----2--------|
--0--0-0-0-0-0----0-0-0--0-0-----------------5--3--|


                                                         
--------------------------------------------------------|
--------------------------------------------------------|
--------------------------------------------------------|
--1--1-1-1-1-1----1-1-1--1-1-1--1-1-1-1-1----1-1-1--1-1-|


                                                   
--------------------------------------------------|
--------------------------------------------------|
-----------------------3-----------------------3--|
--5----3-3-5----3-3-5-----5----3-3-5----3-3-5-----|


                                             
--------------------------------------------|
--------------------------------------------|
--3/-5--5--5--------0-0-3/-5--5--5----------|
--------------------------------------------|


                                                              
-------------------------------------------------------------|
-------------------------------------------------------------|
-----------------------------7-7-7-7-5-5-5-5-3-3-3-3-2-2-0-0-|
--0--0-0-0-0-0----0-0-0--0-0---------------------------------|


                                                         
--------------------------------------------------------|
--------------------------------------------------------|
--------------------------------------------------------|
--1--1-1-1-1-1----1-1-1--1-1-1--1-1-1-1-1----1-1-1--1-1-|


                                                         
--------------------------------------------------------|
--------------------------------------------------------|
--5--5-5-5-5-5----5-5-5--5-5-5--5-5-5-5-5----5-5-5--5-5-|
--------------------------------------------------------|


                                             
--------------------------------------------|
--------------------------------------------|
--------------------------------------------|
--3/-5--5--5--------0-0-3/-5--5--5----------|


                                                                              
--------------------------------------|--------------------------------------|
--------------------------------------|--------------------------------------|
--5------------5--5--------------5----|--3------------3--3--------------3----|
--------------------------------------|--------------------------------------|


                                                                            
--------------------------------------|------------------------------------|
--------------------------------------|------------------------------------|
--1------------1--1--------------1----|--0----------------6----------------|
--------------------------------------|------------------------------------|


                                                                              
--------------------------------------|--------------------------------------|
--------------------------------------|--------------------------------------|
--5------------5--5--------------5----|--3------------3--3--------------3----|
--------------------------------------|--------------------------------------|


                                       
--------------------------------------|
--------------------------------------|
--1------------1--1--------------1----|
--------------------------------------|


                                                             
------------------------------------------------------------|
------------------------------------------------------------|
------------------------------------------------------------|
--0--0-0-0--0-0-0-0-0--0-0-0-0-3--3-3-3--3-3-3-3-3--3-3-3-3-|


                                                            
-----------------------------------------------------------|
-----------------------------------------------------------|
--0--0-0-0--0-0-0-0-0--0-0-0-0-3--3-3-3--3-3-5--5-5-5--5-5-|
-----------------------------------------------------------|


                                                             
------------------------------------------------------------|
------------------------------------------------------------|
------------------------------------------------------------|
--0--0-0-0--0-0-0-0-0--0-0-0-0-3--3-3-3--3-3-3-3-3--3-3-3-3-|


                                                            
-----------------------------------------------------------|
-----------------------------------------------------------|
--0--0-0-0--0-0-0-0-0--0-0-0-0-3--3-3-3--3-3-5--5-5-5--5-5-|
-----------------------------------------------------------|


                                                    
---------------------------------------------------|
---------------------------------------------------|
--0--0--0--0--0-0-0--0--0----0--0--0--0-0-0--0--0--|
---------------------------------------------------|


                                            
-------------------------------------------|
-------------------------------------------|
--0--0--0--0--0-0-0--0--0------------------|
-------------------------------------------|


                                                    
---------------------------------------------------|
---------------------------------------------------|
--0--0--0--0--0-0-0--0--0----0--0--0--0-0-0--0--0--|
---------------------------------------------------|


                                            
-------------------------------------------|
-------------------------------------------|
--0--0--0--0--0-0-0--0--0------------------|
-------------------------------------------|


                                                    
---------------------------------------------------|
---------------------------------------------------|
-----------------------------7----5--3----2--------|
--0--0-0-0-0-0----0-0-0--0-0-----------------5--3--|


                                                         
--------------------------------------------------------|
--------------------------------------------------------|
--------------------------------------------------------|
--1--1-1-1-1-1----1-1-1--1-1-1--1-1-1-1-1----1-1-1--1-1-|


                                                         
--------------------------------------------------------|
--------------------------------------------------------|
--5--5-5-5-5-5----5-5-5--5-5-5--5-5-5-5-5----5-5-5--5-5-|
--------------------------------------------------------|


                                             
--------------------------------------------|
--------------------------------------------|
--------------------------------------------|
--3/-5--5--5--------0-0-3/-5--5--5----------|


                                                              
-------------------------------------------------------------|
-------------------------------------------------------------|
-----------------------------7-7-7-7-5-5-5-5-3-3-3-3-2-2-0-0-|
--0--0-0-0-0-0----0-0-0--0-0---------------------------------|


                                                         
--------------------------------------------------------|
--------------------------------------------------------|
--------------------------------------------------------|
--1--1-1-1-1-1----1-1-1--1-1-1--1-1-1-1-1----1-1-1--1-1-|


                                                   
--------------------------------------------------|
--------------------------------------------------|
-----------------------3-----------------------3--|
--5----3-3-5----3-3-5-----5----3-3-5----3-3-5-----|


                                             
--------------------------------------------|
--------------------------------------------|
--3/-5--5--5--------0-0-3/-5--5--5----------|
--------------------------------------------|


                                                                              
--------------------------------------|--------------------------------------|
--7------------7----------------------|--------------------------------------|
--------------------5------------5----|--8------------8----6------------6----|
--------------------------------------|--------------------------------------|


                                                                             
-------------------------------------|--------------------------------------|
-------------------------------------|--------------------------------------|
--2----------------2------------2----|--3------------3----5------------5----|
-------------------------------------|--------------------------------------|


                                                             
------------------------------------------------------------|
------------------------------------------------------------|
------------------------------------------------------------|
--0--0-0-0--0-0-0-0-0--0-0-0-0-3--3-3-3--3-3-3-3-3--3-3-3-3-|


                                                            
-----------------------------------------------------------|
-----------------------------------------------------------|
--0--0-0-0--0-0-0-0-0--0-0-0-0-3--3-3-3--3-3-5--5-5-5--5-5-|
-----------------------------------------------------------|


                                                             
------------------------------------------------------------|
------------------------------------------------------------|
------------------------------------------------------------|
--0--0-0-0--0-0-0-0-0--0-0-0-0-3--3-3-3--3-3-3-3-3--3-3-3-3-|


                                                            
-----------------------------------------------------------|
-----------------------------------------------------------|
--0--0-0-0--0-0-0-0-0--0-0-0-0-3--3-3-3--3-3-5--5-5-5--5-5-|
-----------------------------------------------------------|


                                                             
------------------------------------------------------------|
------------------------------------------------------------|
------------------------------------------------------------|
--0--0-0-0--0-0-0-0-0--0-0-0-0-3--3-3-3--3-3-3-3-3--3-3-3-3-|


                                                            
-----------------------------------------------------------|
-----------------------------------------------------------|
--0--0-0-0--0-0-0-0-0--0-0-0-0-3--3-3-3--3-3-5--5-5-5--5-5-|
-----------------------------------------------------------|


                                                             
------------------------------------------------------------|
------------------------------------------------------------|
------------------------------------------------------------|
--0--0-0-0--0-0-0-0-0--0-0-0-0-3--3-3-3--3-3-3-3-3--3-3-3-3-|


                                                            
-----------------------------------------------------------|
-----------------------------------------------------------|
--0--0-0-0--0-0-0-0-0--0-0-0-0-3--3-3-3--3-3-5--5-5-5--5-5-|
-----------------------------------------------------------|


                                                    
---------------------------------------------------|
---------------------------------------------------|
--0--0--0--0--0-0-0--0--0----0--0--0--0-0-0--0--0--|
---------------------------------------------------|


                                            
-------------------------------------------|
-------------------------------------------|
--0--0--0--0--0-0-0--0--0------------------|
-------------------------------------------|


                                                    
---------------------------------------------------|
---------------------------------------------------|
--0--0--0--0--0-0-0--0--0----0--0--0--0-0-0--0--0--|
---------------------------------------------------|


                                            
-------------------------------------------|
-------------------------------------------|
--0--0--0--0--0-0-0--0--0------------------|
-------------------------------------------|


                                                    
---------------------------------------------------|
---------------------------------------------------|
-----------------------------7----5--3----2--------|
--0--0-0-0-0-0----0-0-0--0-0-----------------5--3--|


                                                         
--------------------------------------------------------|
--------------------------------------------------------|
--------------------------------------------------------|
--1--1-1-1-1-1----1-1-1--1-1-1--1-1-1-1-1----1-1-1--1-1-|


                                                         
--------------------------------------------------------|
--------------------------------------------------------|
--5--5-5-5-5-5----5-5-5--5-5-5--5-5-5-5-5----5-5-5--5-5-|
--------------------------------------------------------|


                                             
--------------------------------------------|
--------------------------------------------|
--------------------------------------------|
--3/-5--5--5--------0-0-3/-5--5--5----------|


                                                              
-------------------------------------------------------------|
-------------------------------------------------------------|
-----------------------------7-7-7-7-5-5-5-5-3-3-3-3-2-2-0-0-|
--0--0-0-0-0-0----0-0-0--0-0---------------------------------|


                                                         
--------------------------------------------------------|
--------------------------------------------------------|
--------------------------------------------------------|
--1--1-1-1-1-1----1-1-1--1-1-1--1-1-1-1-1----1-1-1--1-1-|


                                                   
--------------------------------------------------|
--------------------------------------------------|
-----------------------3-----------------------3--|
--5----3-3-5----3-3-5-----5----3-3-5----3-3-5-----|


                                             
--------------------------------------------|
--------------------------------------------|
--3/-5--5--5--------0-0-3/-5--5--5----------|
--------------------------------------------|


                                                   
--------------------------------------------------|
--------------------------------------------------|
--3/-5--5--5--5--5--5--5--5--5--5--5--5--5--5--5--|
--------------------------------------------------|


                                                                            
---------------------------------------|-----------------------------------|
---------------------------------------|-----------------------------------|
---------------------------------------|-----------------------------------|
--0--------------------------0-0-0--0--|--0--------------------------------|
            
Submit corrections

comments powered by Disqus
↑ Back to top | Sentenced Bass for The War Aint Over. Lyrics for acoustic guitar and electric guitar. Tablatures and chords are parodies/interpretations of the original songs. You may use it for private study, scholarship, research or language learning purposes only