» » »

Sentenced, Lower The Flags Bass tabs (ver.1)

Artists:  A B C D E F G H I J K L M N O P Q R S T U V W X Y Z # 

Lower The Flags Bass tabs (ver.1)

Sentenced Tabs
Rating:
0/5 (0 votes)
Hard to play? Try these video lessons and learn fast.
                "Lower The Flags" - Sentenced

D, G, C, F

Intro
|-----------------------------------------------------------------|
|-----------------------------------------------------------------|
|-0-0-0-0-0-0-0-0-----------------3-3-3-3-3-3-3-3-----------------|
|-----------------1-1-1-1-1-1-1-1-----------------3-3-3-3-3-3-3-3-|

Repeat then...

|---------------------------|
|---------------------------|
|---------------------------|
|-1-1-1-1-1-1-1-1-1-1-1-1-1-|

Verse
|-------------------------------------------------------|
|-------------------------------------------------------|
|-3~-----0~------0~------0~------3~---3-3-3-3-3-3-------|
|----3~------1~------1~------1~-------------------0-1-0-|

Chorus (is the intro section)

Verse 2
|-------------------------------|
|-------------------------------|
|-0~----0~-----0~-----3~--------|
|----1~----1~------1~--------3~-| 

Then Play Verse 1 without the first 2 3's

Interlude x2
|------------------------------------------|
|------------------------------------------|
|-----------------5-3-2-0------------------|
|-0-0-0-0-0-0-0-0---------0--0-3-5-0---0-0-|

play Verse 2

Final Chorus
|-----------------------------------------------------------------|
|---------------------------------0-0-0-0-0-0-0-0-----------------|
|-2-2-2-2-2-2-2-2---------------------------------0-0-0-0-0-0-0-0-|
|-----------------3-3-3-3-3-3-3-3---------------------------------|

Outro
|-------------------------------|
|-------------------------------|
|-------------------------------|
|-3-3-3-3-3-3-3-3-3-3-3-3-3-3-3-|
            

comments powered by Disqus
↑ Back to top | Sentenced Bass for Lower The Flags. Lyrics for acoustic guitar and electric guitar. Tablatures and chords are parodies/interpretations of the original songs. You may use it for private study, scholarship, research or language learning purposes only