>
 >
Lower The Flags

Lower The Flags Guitar Tabs

Sentenced - Lower The Flags chords, tabs, tablatures, lyrics

Guitar lessons | Add/correct | Request | Top 50 tabs Artists:  A B C D E F G H I J K L M N O P Q R S T U V W X Y Z 0-9

Lower The Flags Guitar Tabs – Sentenced

CD, Sheet music, Poster

Do you like Lower The Flags? Share with your friends now
Bass TabsTabs
This should be right, the tuning is : DGCFAG 

            W                   W                   W                 
D||-------|-------------------|-------------------|-------------------|
A||-------|-------------------|-------------------|-------------------|
F||-------|-------------------|-------------------|--5----------------|
C||-------|--7----------------|--3----------------|--5----------------|
G||-------|--7----------------|--3----------------|--3----------------|
D||-------|--5----------------|--1----------------|-------------------|


  W                   W                   W                   W                 
-------------------|-------------------|-------------------|-------------------|
-------------------|-------------------|-------------------|-------------------|
-------------------|-------------------|-------------------|--5----------------|
--5----------------|--7----------------|--3----------------|--5----------------|
--5----------------|--7----------------|--3----------------|--3----------------|
--3----------------|--5----------------|--1----------------|-------------------|


  W                   E  E  E  E  E  E  E  E     E  E  E  E  E  E  Q     
-------------------|--------------------------|-------------------------|
-------------------|--------------------------|-------------------------|
-------------------|--------------------------|-------------------------|
--5----------------|--3--------3--------3-----|-----3--------3--3-------|
--5----------------|--3--------3--------3-----|-----3--------3--3-------|
--3----------------|--1--1--1--1--1--1--1--1--|--1--1--1--1--1--1-------|


  S S E  H.              E  E  S  S  Q    Q    E     S S E  H.            
----------------------|---------------------------|----------------------|
----------------------|--------0h-1p-0------------|----------------------|
----------------------|-----2-------------2-------|----------------------|
------7--L------------|--3---------------------3--|------7--L------------|
----7-----------------|---------------------------|----7-----------------|
--5-------------------|---------------------------|--5-------------------|


  E  E  S  S  Q    Q    E     S S E  H.              E  E  S  S  Q    Q    E    
---------------------------|----------------------|----------------------------|
--------0h-1p-0------------|----------------------|--------0h-1p-0-------------|
-----2-------------2-------|----------------------|-----2-------------2--------|
--3---------------------3--|------7--L------------|--3---------------------2~--|
---------------------------|----7-----------------|----------------------------|
---------------------------|--5-------------------|----------------------------|


  E  Q     Q     E   E   E      E  E.   S  Q     Q     E    
-----------------------------|-----------------------------|
-----------------------------|-----------------------------|
-----------9~----7~--5~------|-----------------------------|
--L--------------------------|-----------------------------|
-----5~----------------------|-----5~---7~-5~----3~----2~--|
-------------------------3~--|--L--------------------------|


  S S E  H.              E  E  S  S  Q    Q    E     S S E  H.            
----------------------|---------------------------|----------------------|
----------------------|--------0h-1p-0------------|----------------------|
----------------------|-----2-------------2-------|----------------------|
------7--L------------|--3---------------------3--|------7--L------------|
----7-----------------|---------------------------|----7-----------------|
--5-------------------|---------------------------|--5-------------------|


  E  E  S  S  Q    Q    E     S S E  H.              E  E  S  S  Q    Q    E   
---------------------------|----------------------|---------------------------|
--------0h-1p-0------------|----------------------|--------0h-1p-0------------|
-----2-------------2-------|----------------------|-----2-------------2-------|
--3---------------------3--|------7--L------------|--3---------------------5--|
---------------------------|----7-----------------|------------------------3--|
---------------------------|--5-------------------|---------------------------|


     PM PM PM PM PM PM                                      PM PM PM            
  E  E  E  E  E  E  E  E     E  Q    E  H           Q    E  S  E  S  E  E  S S  
--------------------------|----------------------|-----------------------------|
--------------------------|----------------------|-----------------------------|
--------------------------|----------------------|-----------------------------|
--L--5--5--5--5--5--5-----|----------------------|--7----7-----------7--7------|
--L--3--3--3--3--3--3--2--|--L--3----2-----------|--7----7-----------7--7------|
-----------------------0--|--L--1----0-----------|--5----5--5--5--5--5--5--5-5-|


          PM PM PM                      PM PM PM            
  Q    E  S  E  S  E  E  S S    Q    E  S  E  S  E  E  S S  
-----------------------------|-----------------------------|
-----------------------------|-----------------------------|
-----------------------------|--5----5-----------5--5------|
--3----3-----------3--3------|--5----5-----------5--5------|
--3----3-----------3--3------|--3----3--3--3--3--3--3--3-3-|
--1----1--1--1--1--1--1--1-1-|-----------------------------|


          PM PM PM                      PM PM PM            
  Q    E  S  E  S  E  E  S S    Q    E  S  E  S  E  E  S S  
-----------------------------|-----------------------------|
-----------------------------|-----------------------------|
-----------------------------|-----------------------------|
--5----5-----------5--5------|--7----7-----------7--7------|
--5----5-----------5--5------|--7----7-----------7--7------|
--3----3--3--3--3--3--3--3-3-|--5----5--5--5--5--5--5--5-5-|


          PM PM PM                      PM PM PM            
  Q    E  S  E  S  E  E  S S    Q    E  S  E  S  E  E  S S  
-----------------------------|-----------------------------|
-----------------------------|-----------------------------|
-----------------------------|--5----5-----------5--5------|
--3----3-----------3--3------|--5----5-----------5--5------|
--3----3-----------3--3------|--3----3--3--3--3--3--3--3-3-|
--1----1--1--1--1--1--1--1-1-|-----------------------------|


          PM PM PM                                       
  Q    E  S  E  S  E  E  S S    E  E  E  E  E  E  E  E   
-----------------------------|--------------------------|
-----------------------------|--------------------------|
-----------------------------|--------------------------|
--5----5-----------5--5------|--3--------3--------3-----|
--5----5-----------5--5------|--3--------3--------3-----|
--3----3--3--3--3--3--3--3-3-|--1--1--1--1--1--1--1--1--|


  E  E  E  E  E  E  Q       S S E  H.              E  E  S  S  Q    Q    E   
-------------------------|----------------------|---------------------------|
-------------------------|----------------------|--------0h-1p-0------------|
-------------------------|----------------------|-----2-------------2-------|
-----3--------3--3-------|------7--L------------|--3---------------------3--|
-----3--------3--3-------|----7-----------------|---------------------------|
--1--1--1--1--1--1-------|--5-------------------|---------------------------|


  S S E  H.              E  E  S  S  Q    Q    E     S S E  H.            
----------------------|---------------------------|----------------------|
----------------------|--------0h-1p-0------------|----------------------|
----------------------|-----2-------------2-------|----------------------|
------7--L------------|--3---------------------3--|------7--L------------|
----7-----------------|---------------------------|----7-----------------|
--5-------------------|---------------------------|--5-------------------|


  E  E  S  S  Q    Q    E      E  Q     Q     E   E   E    
----------------------------|-----------------------------|
--------0h-1p-0-------------|-----------------------------|
-----2-------------2--------|-----------9~----7~--5~------|
--3---------------------2~--|--L--------------------------|
----------------------------|-----5~----------------------|
----------------------------|-------------------------3~--|


  E  E.   S  Q     Q     E      S S E  H.            
-----------------------------|----------------------|
-----------------------------|----------------------|
-----------------------------|----------------------|
-----------------------------|------7--L------------|
-----5~---7~-5~----3~----2~--|----7-----------------|
--L--------------------------|--5-------------------|


  E  E  S  S  Q    Q    E     S S E  H.              E  E  S  S  Q    Q    E   
---------------------------|----------------------|---------------------------|
--------0h-1p-0------------|----------------------|--------0h-1p-0------------|
-----2-------------2-------|----------------------|-----2-------------2-------|
--3---------------------3--|------7--L------------|--3---------------------3--|
---------------------------|----7-----------------|---------------------------|
---------------------------|--5-------------------|---------------------------|


                                                        PM PM PM PM PM PM     
  S S E  H.              E  E  S  S  Q    Q    E     E  E  E  E  E  E  E  E   
----------------------|---------------------------|--------------------------|
----------------------|--------0h-1p-0------------|--------------------------|
----------------------|-----2-------------2-------|--------------------------|
------7--L------------|--3---------------------5--|--L--5--5--5--5--5--5-----|
----7-----------------|------------------------3--|--L--3--3--3--3--3--3--2--|
--5-------------------|---------------------------|-----------------------0--|


                                 PM PM PM            
  E  Q    E  H           Q    E  S  E  S  E  E  S S  
----------------------|-----------------------------|
----------------------|-----------------------------|
----------------------|-----------------------------|
----------------------|--7----7-----------7--7------|
--L--3----2-----------|--7----7-----------7--7------|
--L--1----0-----------|--5----5--5--5--5--5--5--5-5-|


          PM PM PM                      PM PM PM            
  Q    E  S  E  S  E  E  S S    Q    E  S  E  S  E  E  S S  
-----------------------------|-----------------------------|
-----------------------------|-----------------------------|
-----------------------------|--5----5-----------5--5------|
--3----3-----------3--3------|--5----5-----------5--5------|
--3----3-----------3--3------|--3----3--3--3--3--3--3--3-3-|
--1----1--1--1--1--1--1--1-1-|-----------------------------|


          PM PM PM                      PM PM PM            
  Q    E  S  E  S  E  E  S S    Q    E  S  E  S  E  E  S S  
-----------------------------|-----------------------------|
-----------------------------|-----------------------------|
-----------------------------|-----------------------------|
--5----5-----------5--5------|--7----7-----------7--7------|
--5----5-----------5--5------|--7----7-----------7--7------|
--3----3--3--3--3--3--3--3-3-|--5----5--5--5--5--5--5--5-5-|


          PM PM PM                      PM PM PM            
  Q    E  S  E  S  E  E  S S    Q    E  S  E  S  E  E  S S  
-----------------------------|-----------------------------|
-----------------------------|-----------------------------|
-----------------------------|--5----5-----------5--5------|
--3----3-----------3--3------|--5----5-----------5--5------|
--3----3-----------3--3------|--3----3--3--3--3--3--3--3-3-|
--1----1--1--1--1--1--1--1-1-|-----------------------------|


          PM PM PM                                       
  Q    E  S  E  S  E  E  S S    E  E  E  E  E  E  E  E   
-----------------------------|--------------------------|
-----------------------------|--------------------------|
-----------------------------|--------------------------|
--5----5-----------5--5------|--3--------3--------3-----|
--5----5-----------5--5------|--3--------3--------3-----|
--3----3--3--3--3--3--3--3-3-|--1--1--1--1--1--1--1--1--|


  E  E  E  E  E  E  S S E     E  E  H.                                          
---------------------------|---------------------|-----|-----|-----|-----|-----|
---------------------------|---------------------|-----|-----|-----|-----|-----|
---------------------------|---------------------|-----|-----|-----|-----|-----|
-----3--------3--3------2--|--L------------------|-----|-----|-----|-----|-----|
-----3--------3--3------2--|--L------------------|-----|-----|-----|-----|-----|
--1--1--1--1--1--1--0-0-0--|--L------------------|-----|-----|-----|-----|-----|


                    S S E  H.              E  E  S  S  Q    Q    E   
-----|-----|-----|----------------------|---------------------------|
-----|-----|-----|----------------------|--------0h-1p-0------------|
-----|-----|-----|----------------------|-----2-------------2-------|
-----|-----|-----|------7--L------------|--3---------------------3--|
-----|-----|-----|----7-----------------|---------------------------|
-----|-----|-----|--5-------------------|---------------------------|


  S S E  H.              E  E  S  S  Q    Q    E     S S E  H.            
----------------------|---------------------------|----------------------|
----------------------|--------0h-1p-0------------|----------------------|
----------------------|-----2-------------2-------|----------------------|
------7--L------------|--3---------------------3--|------7--L------------|
----7-----------------|---------------------------|----7-----------------|
--5-------------------|---------------------------|--5-------------------|


                                 PM PM PM PM PM PM                            
  E  E  S  S  Q    Q    E     E  E  E  E  E  E  E  E     E  Q    E  H         
---------------------------|--------------------------|----------------------|
--------0h-1p-0------------|--------------------------|----------------------|
-----2-------------2-------|--------------------------|----------------------|
--3---------------------5--|--L--5--5--5--5--5--5-----|----------------------|
------------------------3--|--L--3--3--3--3--3--3--2--|--L--3----2-----------|
---------------------------|-----------------------0--|--L--1----0-----------|


          PM PM PM                      PM PM PM            
  Q    E  S  E  S  E  E  S S    Q    E  S  E  S  E  E  S S  
-----------------------------|-----------------------------|
-----------------------------|-----------------------------|
--4----4-----------4--4------|-----------------------------|
--4----4-----------4--4------|--5----5-----------5--5------|
--2----2--2--2--2--2--2--2-2-|--5----5-----------5--5------|
-----------------------------|--3----3--3--3--3--3--3--3-3-|


          PM PM PM                      PM PM PM            
  Q    E  S  E  S  E  E  S S    Q    E  S  E  S  E  E  S S  
-----------------------------|-----------------------------|
-----------------------------|-----------------------------|
--7----7-----------7--7------|--2----2-----------2--2------|
--7----7-----------7--7------|--2----2-----------2--2------|
--5----5--5--5--5--5--5--5-5-|--0----0--0--0--0--0--0--0-0-|
-----------------------------|-----------------------------|


          PM PM PM                      PM PM PM            
  Q    E  S  E  S  E  E  S S    Q    E  S  E  S  E  E  S S  
-----------------------------|-----------------------------|
-----------------------------|-----------------------------|
--4----4-----------4--4------|-----------------------------|
--4----4-----------4--4------|--5----5-----------5--5------|
--2----2--2--2--2--2--2--2-2-|--5----5-----------5--5------|
-----------------------------|--3----3--3--3--3--3--3--3-3-|


          PM PM PM                      PM PM PM            
  Q    E  S  E  S  E  E  S S    Q    E  S  E  S  E  E  S S  
-----------------------------|-----------------------------|
-----------------------------|-----------------------------|
--7----7-----------7--7------|--2----2-----------2--2------|
--7----7-----------7--7------|--2----2-----------2--2------|
--5----5--5--5--5--5--5--5-5-|--0----0--0--0--0--0--0--0-0-|
-----------------------------|-----------------------------|


          PM PM PM                      PM PM PM            
  Q    E  S  E  S  E  E  S S    Q    E  S  E  S  E  E  S S  
-----------------------------|-----------------------------|
-----------------------------|-----------------------------|
--4----4-----------4--4------|-----------------------------|
--4----4-----------4--4------|--5----5-----------5--5------|
--2----2--2--2--2--2--2--2-2-|--5----5-----------5--5------|
-----------------------------|--3----3--3--3--3--3--3--3-3-|


          PM PM PM                      PM PM PM            
  Q    E  S  E  S  E  E  S S    Q    E  S  E  S  E  E  S S  
-----------------------------|-----------------------------|
-----------------------------|-----------------------------|
--7----7-----------7--7------|--2----2-----------2--2------|
--7----7-----------7--7------|--2----2-----------2--2------|
--5----5--5--5--5--5--5--5-5-|--0----0--0--0--0--0--0--0-0-|
-----------------------------|-----------------------------|


          PM PM PM                      PM PM PM            
  Q    E  S  E  S  E  E  S S    Q    E  S  E  S  E  E  S S  
-----------------------------|-----------------------------|
-----------------------------|-----------------------------|
--4----4-----------4--4------|-----------------------------|
--4----4-----------4--4------|--5----5-----------5--5------|
--2----2--2--2--2--2--2--2-2-|--5----5-----------5--5------|
-----------------------------|--3----3--3--3--3--3--3--3-3-|


          PM PM PM                      PM PM PM            
  Q    E  S  E  S  E  E  S S    Q    E  S  E  S  E  E  S S  
-----------------------------|-----------------------------|
-----------------------------|-----------------------------|
--7----7-----------7--7------|--2----2-----------2--2------|
--7----7-----------7--7------|--2----2-----------2--2------|
--5----5--5--5--5--5--5--5-5-|--0----0--0--0--0--0--0--0-0-|
-----------------------------|-----------------------------|


                                                           ^                
  E  E  E  E  E  E  E  E     E  E  E  E  E  E  Q       S S E  H.            
--------------------------|-------------------------|----------------------|
--------------------------|-------------------------|------3--L------------|
--------------------------|-------------------------|------4--L------------|
--5--------5--------5-----|-----5--------5--5-------|----4-----------------|
--5--------5--------5-----|-----5--------5--5-------|--2-------------------|
--3--3--3--3--3--3--3--3--|--3--3--3--3--3--3-------|----------------------|


  W                  
-------------------||
--L----------------||
--L----------------||
-------------------||
-------------------||
-------------------||





Comments


Popular Sentenced tabs & chords
Bleed 1 Bass Tabs
Keep My Grave Open Bass Tabs
Lower The Flags Bass Tabs
Sun Won't Shine Bass Tabs
Despair-ridden Hearts 1 Chords
Drown Together Tabs
Keep My Grave Open Tabs
Luxury Of A Grave Tabs
No Tomorrow Tabs
The Truth Tabs


Song lyrics



↑ Back to top | Tablatures and chords are parodies/interpretations of the original songs. You may use it for private study, scholarship, research or language learning purposes only
© 2014 AZChords.com Contact us | Privacy policy | DMCA | Add/correct tabs | Request tabs | Top 50 tabs