>
 >
Drown Together

Drown Together Guitar Tabs

Sentenced - Drown Together chords, tabs, tablatures, lyrics

Guitar lessons | Add/correct | Request | Top 50 tabs Artists:  A B C D E F G H I J K L M N O P Q R S T U V W X Y Z 0-9

Drown Together Guitar Tabs – Sentenced

CD, Sheet music, Poster

Do you like Drown Together? Share with your friends now
Bass TabsTabs
                            SENTENCED: Drown Together
                             From the Album Frozen
                             1998 - Century Media
                           Version 1.0 - March 2002


  . - palm mute                      hb =half bend
  / - slide up                       hr =half bend and release
  \ - slide down
  h - hammer on                      fb =full bend
  p - pull off                       fr =full bend and release
  ~ - vibrato
(5) - ghost note, sustained note
  x - percussive mute, mute
  t - tap
   - natural harmonic
  ^ - pinch harmonic                                    
  " - tremolo picking

D TUNING




1st verse
|--------------------------------------------------------------------|
|--------------------------------------------------------------------|
|--------------------------------------------------------------------|
|---------7-77775754-22222225-44444444-------------------------------|
|--44444445-55555555-00000002-22222222-------------------------------|
|--2222222-----------------------------------------------------------|
   ........ ........ ........ ........
|--------------------------------------------------------------------|
|--------------------------------------------------------------------|
|--------------------------------------------------------------------|
|---------7-77775754-4444444-4-2-------------------------------------|
|--44444445-55555555-2222222-2-0----5-5------------------------------|
|--2222222-----------------------00-3-2------------------------------|
   ........ ........ .......     ..


play 4 times under lead
|--------------------------------------------------------------------|
|--------------------------------------------------------------------|
|--x\-x\-----------77777777-44444442-2222----------------------------|
|--x\-x\--44444444-77777777-44444442-22225555------------------------|
|--x\-x\--44444444-55555555-22222220-00005555------------------------|
|---------22222222-----------------------3333------------------------|

1st and 2nd time over rythme
|--------------------------------------------------------------------|
|--------------------------------------------------------------------|
|-----------------------------7-6-4-4h6-6--7-6-4-4h6-6---------------|
|--------------------------------------------------------------------|
|--------------------------------------------------------------------|
|--------------------------------------------------------------------|

3rd and 4th time over rythme 
|--2~--3h5-3h5p2p0-----5h7-5h7p5p4---------5---7h9-7h9p7-------------|
|------------------3~--------------7p5p4h7---------------9-5---------|
|--------------------------------------------------------------------|
|--------------------------------------------------------------------|
|--------------------------------------------------------------------|
|--------------------------------------------------------------------|




2nd verse (play twice)
|--------------------------------------------------------------------|
|--------------------------------------------------------------------|
|--------------------------------------------------------------------|
|---------7-77775754-22222225-44444444-------------------------------|
|--44444445-55555555-00000002-22222222-------------------------------|
|--2222222-----------------------------------------------------------|
   ........ ........ ........ ........
|--------------------------------------------------------------------|
|--------------------------------------------------------------------|
|--------------------------------------------------------------------|
|---------7-77775754-4444444-4-2-------------------------------------|
|--44444445-55555555-2222222-2-0----5-5------------------------------|
|--2222222-----------------------00-3-2------------------------------|
   ........ ........ .......     ..


bridge
|-----------------------------------------------------------------------|
|-----------------------------------------------------------------------|
|--77777777-7777755-2---4444\-2---4444/9x5x777-7777-7777777-/99999999---|
|--77777777-7777755-2---4444\-2---4444/9x5x777-7777-7777777-/99999999---|
|--55555555-5555533-0-0-2222\-0-0-2222/7x3x555-5555-5555555-/77777777---|
|-----------------------------------------------------------------------|

|-----------------------------------------------------------------------|
|-----------------------------------------------------------------------|
|-----------------------------------------------------------------------|
|--555555555------------------------------------------------------------|
|--555555555------------------------------------------------------------|
|--333333333------------------------------------------------------------|



chorus (play twice)
|--------------------------------------------------------------------|
|--------------------------------------------------------------------|
|-----------77777777-44444442-2222--------------------------------------|
|--44444444-77777777-44444442-22225555-----------------------------------|
|--44444444-55555555-22222220-00005555-------------------------------|
|--22222222-----------------------3333-------------------------------|

1st time over rythme 
|--------------------------------------------------------------------|
|--------5------------5----------------------------------------------|
|------4---7-6-4-4h6----7-6-4--7-6-4-4h6-----------------------------|
|--4-5---------------------------------------------------------------|
|--------------------------------------------------------------------|
|--------------------------------------------------------------------|

2nd time over rythme
|--------------------------------------------------------------------|
|--------5------------------2----------------------------------------|
|------4---7-6-4-4h6--2-2-4---4-2-2h4-1-1----------------------------|
|--4-5---------------------------------------------------------------|
|--------------------------------------------------------------------|
|--------------------------------------------------------------------|



3rd verse (play once)
|--------------------------------------------------------------------|
|--------------------------------------------------------------------|
|--------------------------------------------------------------------|
|---------7-77775754-22222225-44444444-------------------------------|
|--44444445-55555555-00000002-22222222-------------------------------|
|--2222222-----------------------------------------------------------|
   ........ ........ ........ ........
|--------------------------------------------------------------------|
|--------------------------------------------------------------------|
|--------------------------------------------------------------------|
|---------7-77775754-4444444-4-2-------------------------------------|
|--44444445-55555555-2222222-2-0----5-5------------------------------|
|--2222222-----------------------00-3-2------------------------------|
   ........ ........ .......     ..

bridge
|----------------------------------------------------------------------|
|----------------------------------------------------------------------|
|--77777777-7777755-2---4444\-2---4444/9x5x777-7777-7777777-/99999999--|
|--77777777-7777755-2---4444\-2---4444/9x5x777-7777-7777777-/99999999--|
|--55555555-5555533-0-0-2222\-0-0-2222/7x3x555-5555-5555555-/77777777--|
|----------------------------------------------------------------------|

|----------------------------------------------------------------------|
|----------------------------------------------------------------------|
|----------------------------------------------------------------------|
|--555555555-----------------------------------------------------------|
|--555555555-----------------------------------------------------------|
|--333333333-----------------------------------------------------------|


chorus 
|--------------------------------------------------------------------|
|--------------------------------------------------------------------|
|-----------77777777-44444442-2222-----------------------------------|
|--44444444-77777777-44444442-22225555-------------------------------|
|--44444444-55555555-22222220-00005555-------------------------------|
|--22222222-----------------------3333-------------------------------|
|
|--------------------------------------------------------------------|
|--------5------------5----------------------------------------------|
|------4---7-6-4-4h6----7-6-4--7-6-4-4h6-----------------------------|
|--4-5---------------------------------------------------------------|
|--------------------------------------------------------------------|
|--------------------------------------------------------------------|


|--------------------------------------------------------------------|
|--------------------------------------------------------------------|
|-----------77777777-44444442-2222-----------------------------------|
|--44444444-77777777-44444442-22225555-5555555-----------------------|
|--44444444-55555555-22222220-00005555-5555555-----------------------|
|--22222222-----------------------3333-3333333-----------------------|
|
|--------------------------------------------------------------------|
|--------5------------------2---------3------------------------------|
|------4---7-6-4-4h6--2-2-4---4-2-2h4--------------------------------|
|--4-5---------------------------------------------------------------|
|--------------------------------------------------------------------|
|--------------------------------------------------------------------|



prelude to solo (play twice)
|--------------------------------------------------------------------|
|--------------------------------------------------------------------|
|--4--------2--------------------------------------------------------|
|--4-444444-2-222222-5-----------------------------------------------|
|--2-222222-0-000000-5-555555-55555555-------------------------------|
|--------------------3-333333-33333333-------------------------------|



solo
|--5-5-5-------------------------------5-5-5----------------------------------------|
|--------3-3-2--2-3-2--2h3p2-----2-3-2-------3-3-2--2-3h5---2-3-2-------------------|
|----------------------------4-4--------------------------4-------4p2-1h2-4p2-1-1h2-|
|-----------------------------------------------------------------------------------|
|-----------------------------------------------------------------------------------|
|-----------------------------------------------------------------------------------|

verse riff played once under solo                                                                    |
|--------------------------------------------------------------------|
|--------------------------------------------------------------------|
|--------------------------------------------------------------------|
|---------7-77775754-22222225-44444444-------------------------------|
|--44444445-55555555-00000002-22222222-------------------------------|
|--2222222-----------------------------------------------------------|
   ........ ........ ........ ........
|--------------------------------------------------------------------|
|--------------------------------------------------------------------|
|--------------------------------------------------------------------|
|---------7-77775754-4444444-4-2-------------------------------------|
|--44444445-55555555-2222222-2-0----5-5------------------------------|
|--2222222-----------------------00-3-2------------------------------|
   ........ ........ .......     ..


bridge
|----------------------------------------------------------------------|
|----------------------------------------------------------------------|
|--77777777-7777755-2---4444\-2---4444/9x5x777-7777-7777777-/99999999--|
|--77777777-7777755-2---4444\-2---4444/9x5x777-7777-7777777-/99999999--|
|--55555555-5555533-0-0-2222\-0-0-2222/7x3x555-5555-5555555-/77777777--|
|----------------------------------------------------------------------|
                      .         .
|----------------------------------------------------------------------|
|----------------------------------------------------------------------|
|----------------------------------------------------------------------|
|--5-------------------------------------------------------------------|
|--5-(let ring)--------------------------------------------------------|
|--3-------------------------------------------------------------------|



chorus and endings 
|--------------------------------------------------------------------|
|--------------------------------------------------------------------|
|-----------77777777-44444442-2222-----------------------------------|
|--44444444-77777777-44444442-22225555-------------------------------|
|--44444444-55555555-22222220-00005555-------------------------------|
|--22222222-----------------------3333-------------------------------|
|                                                                    |
|--------------------------------------------------------------------|
|--------5------------5----------------------------------------------|
|------4---7-6-4-4h6----7-6-4--7-6-4-4h6-----------------------------|
|--4-5---------------------------------------------------------------|
|--------------------------------------------------------------------|
|--------------------------------------------------------------------|

|--------------------------------------------------------------------|
|--------------------------------------------------------------------|
|-----------77777777-44444442-2222-----------------------------------|
|--44444444-77777777-44444442-22225555-------------------------------|
|--44444444-55555555-22222220-00005555-------------------------------|
|--22222222-----------------------3333-------------------------------|
|                                                                    |
|--------------------------------------------------------------------|
|--------5------------------2----------------------------------------|
|------4---7-6-4-4h6--2-2-4---4-2-2h4-1-1----------------------------|
|--4-5---------------------------------------------------------------|
|--------------------------------------------------------------------|
|--------------------------------------------------------------------|



|--------------------------------------------------------------------|
|--------------------------------------------------------------------|
|-----------77777777-44444442-2222-----------------------------------|
|--44444444-77777777-44444442-22225555-------------------------------|
|--44444444-55555555-22222220-00005555-------------------------------|
|--22222222-----------------------3333-------------------------------|
|
|---------------------9-7-9--9-7-7h9p7-------------------------------|
|--------5-----------------------------9/10~-------------------------|
|------4---7-6-4-4h6-------------------------------------------------|
|--4-5---------------------------------------------------------------|
|--------------------------------------------------------------------|
|--------------------------------------------------------------------|


|--------------------------------------------------------------------|
|--------------------------------------------------------------------|
|-----------77777777-44444442-2222-----------------------------------|
|--44444444-77777777-44444442-22225555-55555555----------------------|
|--44444444-55555555-22222220-00005555-55555555----------------------|
|--22222222-----------------------3333-33333333----------------------|
|                                                                    |
|--------------------------------------------------------------------|
|--------5------------------2---------3------------------------------|
|------4---7-6-4-4h6--2-2-4---4-2-2h4--------------------------------|
|--4-5---------------------------------------------------------------|
|--------------------------------------------------------------------|
|--------------------------------------------------------------------|



|--------------------------------------------------------------------|
|--------------------------------------------------------------------|
|-----------77777777-44444442-2222-----------------------------------|
|--44444444-77777777-44444442-22225555-------------------------------|
|--44444444-55555555-22222220-00005555-------------------------------|
|--22222222-----------------------3333-------------------------------|
|
|--------------------------------------------------------------------|
|-----------5----------------------------------5---------------------|
|--------4-----7--6--7--4--7--6-------------4-----7--6--7--4--7--4---|
|--4--5-------------------------6--6--4--5---------------------------|
|--------------------------------------------------------------------|
|--------------------------------------------------------------------|



|--------------------------------------------------------------------|
|--------------------------------------------------------------------|
|-----------77777777-44444442-2222-----------------------------------|
|--44444444-77777777-44444442-22225555-55555555----------------------|
|--44444444-55555555-22222220-00005555-55555555----------------------|
|--22222222-----------------------3333-33333333----------------------|
|                                                                    |
|--------------------------------------------------------------------|
|-----------5-----------------------------------5--------------------|
|--------4-----7--6--7--4--7--6--------------4-----7--6--7--4--7--4--|
|--4--5--------------------------6--6--4--5--------------------------|
|--------------------------------------------------------------------|
|--------------------------------------------------------------------|

|--------------------------------------------------------------------|
|--------------------------------------------------------------------|
|-----------77777777-44444442-2222-----------------------------------|
|--44444444-77777777-44444442-22225555-------------------------------|
|--44444444-55555555-22222220-00005555-------------------------------|
|--22222222-----------------------3333-------------------------------|
|
|--------------------------------------------------------------------|
|-----------5----------------------------------5---------------------|
|--------4-----7--6--7--4--7--6-------------4-----7--6--7--4--7--4---|
|--4--5-------------------------6--6--4--5---------------------------|
|--------------------------------------------------------------------|
|--------------------------------------------------------------------|



|--------------------------------------------------------------------|
|--------------------------------------------------------------------|
|-----------77777777-44444442-2222-----------------------------------|
|--44444444-77777777-44444442-22225555-55555555----------------------|
|--44444444-55555555-22222220-00005555-55555555----------------------|
|--22222222-----------------------3333-33333333----------------------|
|                                                                    |
|--------------------------------------------------------------------|
|-----------5-----------------------------------5--------------------|
|--------4-----7--6--7--4--7--6--------------4-----7--6--7--4--7--4--|
|--4--5--------------------------6--6--4--5--------------------------|
|--------------------------------------------------------------------|
|--------------------------------------------------------------------|



|--------------------------------------------------------------------|
|--------------------------------------------------------------------|
|-----------77777777-44444442-2222-----------------------------------|
|--44444444-77777777-44444442-22225555-------------------------------|
|--44444444-55555555-22222220-00005555-------------------------------|
|--22222222-----------------------3333-------------------------------|
|
|--2~--3h5-3h5p2p0-----5h7-5h7p5p4---------5---7h9-7h9p7-------------|
|------------------3~--------------7p5p4h7---------------9-5---------|
|--------------------------------------------------------------------|
|--------------------------------------------------------------------|
|--------------------------------------------------------------------|
|--------------------------------------------------------------------|


|--------------------------------------------------------------------|
|--------------------------------------------------------------------|
|-----------77777777-44444442----------------------------------------|
|--44444444-77777777-44444442----------------------------------------|
|--44444444-55555555-22222220----------------------------------------|
|--22222222----------------------------------------------------------|
|
|--2~--3h5-3h5p2p0-----5h7-5h7p5p4---------5---7h9-7h9p7-------------|
|------------------3~--------------7p5p4h7---------------9-5---------|
|--------------------------------------------------------------------|
|--------------------------------------------------------------------|
|--------------------------------------------------------------------|
|--------------------------------------------------------------------|





Comments


Popular Sentenced tabs & chords
Dead Moon Rising Bass Tabs
Keep My Grave Open Bass Tabs
May Today Become The Day 2 Bass Tabs
No One There Bass Tabs
The Luxary Of A Grave Bass Tabs
Warrior Of Life Bass Tabs
You Are The One Chords
Aika Multaa Muistot (Everything Is Nothing) Tabs
Home In Despair Tabs
Despair-ridden Hearts Ukulele


Song lyrics



↑ Back to top | Tablatures and chords are parodies/interpretations of the original songs. You may use it for private study, scholarship, research or language learning purposes only
© 2014 AZChords.com Contact us | Privacy policy | DMCA | Add/correct tabs | Request tabs | Top 50 tabs