» » »

Sentenced, Drown Together Bass tabs (ver.1)

Artists:  A B C D E F G H I J K L M N O P Q R S T U V W X Y Z # 

Drown Together Bass tabs (ver.1)

Sentenced Tabs
 Rating:
4/5 (4 votes)
Drown Together lessons Tabs too difficult? Try these video lessons and learn fast
1
                “Drown Together” – Sentenced

Tuning B, F, B, E

Intro
|--------------------------------------------------------------------|
|-----------------3-3-3-3-2-2-3-3-0----------------------------------|
|-0-0-0-0-0-0-0----------------------3-3-3-3-3-3-3-3-2-2-2-2-2-2-2-2-|
|--------------------------------------------------------------------|

|----------------------------------------------------------|
|----------------------------------------------------------|
|-0-0-0-3-2-0-------------------------5-5-5-5-5-5-5-3---2--|
|---------------5-3-3-3-3-2-2-3-3-0------------------------|

|-----------------------------------------------------------------------------|
|--------------------3-3-3-3-3-3-3-3-3-0-0-0-0-0-0-0-0-0----------------------|
|-0-0-0-0-0-0-0-0---------------------------------------------3-3-3-3-2-2-2-2-|
|-----------------------------------------------------------------------------| x2

|------------------------------------------------------------------------|
|--------------------3-3-3-3-3-3-3-3-------------------------------------|
|-0-0-0-0-0-0-0-0--------------------3-3-3-3-3-3-3-3-3-2-2-2-2-2-2-2-2-2-|
|------------------------------------------------------------------------|

Verse (play intro bar 1 & 2 x2)

Bridge
|-----------------------------------------------------------------------0--|
|-3-3-3-3-3-3-3-3-3-3-3-3-3-2-x-----0-0-0-0----------0-0-0-0----x-2-x-3----|
|-------------------------------3-x----------3-x-3-x-----------------------|
|--------------------------------------------------------------------------|

|-----------------------------------0-0-0-0-0-0-0--------------------|
|-3-3-3-3-3-3-3-3-3-3-3-3-3-3----------------------------------------|
|----------------------------------------------------1-1-1-1-1-1-1-1-|
|--------------------------------------------------------------------|

Chorus (intro bar 3)

Verse 

Bridge

Chorus 

Chorus 2
|-----------------------------------------------------------------------------|
|--------------------3-3-3-3-3-3-3-3-3-0-0-0-0-0-0-0-0-0----------------------|
|-0-0-0-0-0-0-0-0---------------------------------------------3-3-3-3-1-1-1-1-|
|-----------------------------------------------------------------------------|


|------------------------------------------------------------|
|-----------------0—0-0-0-0-0-0------------------------------|
|-1-1-1-1-1-1-1------------------3—3-3-3-3-3-1-1-1-1-1-1-1-1-|
|------------------------------------------------------------|

|----------------------------------------------------------------------------|
|-----------------0—0-0-0-0-0-0----------------------------------------------|
|-1-1-1-1-1-1-1------------------3—3-3-3-3-3-1-1-1-1-1-1-1-1-1-1-1-1-1-1-1-1-|
|----------------------------------------------------------------------------|

Solo (intro bar 1 then 2)

Bridge (hold the first 1 and let it ring)

Chorus (intro 3 x3)

Chorus 3
|------------------------------------------------------------------------|
|--------------------3-3-3-3-3-3-3-3-------------------------------------|
|-0-0-0-0-0-0-0-0--------------------3-3-3-3-3-3-3-3-3-1-1-1-1-1-1-1-1-1-|
|------------------------------------------------------------------------|

|-----------------|
|-----------------|
|-1-1-1-1-1-1-1-1-|
|-----------------|

Synth Solo (intro bar 3 then Chorus 3 bar 1 x2)

Intro bar 4 x2 (let the first 2 ring on the repeat)
            
Submit corrections

comments powered by Disqus
↑ Back to top | Sentenced Bass for Drown Together. Lyrics for acoustic guitar and electric guitar. 1 Tablatures and chords are parodies/interpretations of the original songs. You may use it for private study, scholarship, research or language learning purposes only