» » »

Selena Gomez, Falling Down Tabs (ver.3)

Artists:  A B C D E F G H I J K L M N O P Q R S T U V W X Y Z # 

Falling Down Tabs (ver.3)

Selena Gomez Tabs
 Rating:
4.2/5 (5 votes)
Falling Down lessons Tabs too difficult? Try these video lessons and learn fast
                not the first song i do by ear, but the first i send here!!!!

ok, listen to the song to figure out how many times to play each chord

intro
e|----------------|
B|----------------|
G|--7--10---------|
D|--7--10--10-----| x4
A|--5--8---10-----|
E|---------8------|

base(i don't think this is right, but it sounds good to me)
e|-------------------------|
B|-------------------------|
G|-------------------------|
D|--------333--------------| x4
A|---5-5-------33--333-----|
E|-------------------------|

chorus
|---------------|    |--------|
|---------------|    |--------|
|--7--4--5------| x4 |--------|
|--7--4--5--5---|    |-8--10--|
|--5--2--3--5---|    |-8--10--|
|-----------3---|    |-6--8---|


bridge(not really sure about this)
e|----------------|
B|----------------|
G|---7--7--77-----|
D|---7--7--77-----| x2
A|---5--5--55-----|
E|----------------|



intro 
base  
intro 
chorus
intro
base
intro
chorus
bridge 
chorus (with a bit of distortion)
chorus
intro (play a little with it)

hope this helps!!!!!!
            
Submit corrections

comments powered by Disqus
↑ Back to top | Selena Gomez Tabs for Falling Down. Lyrics for acoustic guitar and electric guitar. Tablatures and chords are parodies/interpretations of the original songs. You may use it for private study, scholarship, research or language learning purposes only