» » »

Falling Down Tabs (ver.1)

Artists:  A B C D E F G H I J K L M N O P Q R S T U V W X Y Z # 

Falling Down Tabs (ver.1)

Selena Gomez
Rating:
4/5 (3 votes)

Hard to play? Try these video lessons and learn fast.
                Intro & Pre-Chorus (Verse is bass only)
e|--------------------------------------------------|
B|--------------------------------------------------|
G|--------------55----------------------------------|
D|--------7-7---334-5-5---4-5-6---------------------|
A|--------5-5-----2-3-3---2-3-4---------------------|
E|--------------------------------------------------| x4

Chorus (Strumming)
e|--------------------------------------------------|
B|--------------------------------------------------|
G|--------7--------4--------5-----------------------|
D|--------7--------4--------5--------5--------------|
A|--------5--------2--------3--------5--------------|
E|-----------------------------------3--------------| x3

e|--------------------------------------------------|
B|--------------------------------------------------|
G|--------3--------5--------------------------------|
D|--------3--------5--------------------------------|
A|--------1--------3--------------------------------|
E|--------------------------------------------------|
Strum 8 times each. If you're having trouble, count with it.

Bridge
e|--------------------------------------------------|
B|--------------------------------------------------|
G|--------------------------------------------------|
D|--------7----------------7--------5-7-------------|
A|--------5----------------5--------3-5-------------|
E|--------------------------------------------------|

e|--------------------------------------------------|
B|--------------------------------------------------|
G|--------------------------------------------------|
D|--------7-----------------------------------------|
A|--------5-----------------------------------------|
E|--------------------------------------------------|

e|--------------------------------------------------|
B|--------------------------------------------------|
G|--------------------------------------------------|
D|--------7----------------7-5----------------------|
A|--------5----------------5-3----------------------|
E|--------------------------------------------------|

Outro
e|--------------------------------------------------|
B|--------------------------------------------------|
G|--------------55---------------55-----------------|
D|--------7-7---337--------7-7---337---7-5----------|
A|--------5-5-----5--------5-5-----5---5-3----------|
E|--------------------------------------------------|



Comment if there's anything
            
Hard to play? Try these video lessons and learn fast. | Correct




comments powered by Disqus
↑ Back to top | Tablatures and chords are parodies/interpretations of the original songs. You may use it for private study, scholarship, research or language learning purposes only