» » »

Selena Gomez, Falling Down Tabs (ver.2)

Artists:  A B C D E F G H I J K L M N O P Q R S T U V W X Y Z # 

Falling Down Tabs (ver.2)

Selena Gomez Tabs
 Rating:
3.8/5 (5 votes)
Falling Down lessons Tabs too difficult? Try these video lessons and learn fast
1
                                 Falling Down – Selena Gomez and The Scene


Chucks are optional.
Leave a comment if you have any corrections :D

Intro:
e|-----x--------x-x-------x---------|
B|-----x--------x-x-------x---------|
G|-7-7-x-101010-x-x-------x---------| 
D|-7-7-x-101010-x-x-10-10-x-101010--| x4
A|-5-5-x-8-8-8--x-x-10-10-x-101010--|
E|-----x--------x-x-8--8--x-8-8-8---|

Pre-chorus: [It won’t be long, my darlin’...]
e|-----x--------x-x-------x---------|
B|-----x--------x-x-------x---------|
G|-7-7-x-101010-x-x-------x---------| 
D|-7-7-x-101010-x-x-10-10-x-101010--| x4
A|-5-5-x-8-8-8--x-x-10-10-x-101010--|
E|-----x--------x-x-8--8--x-8-8-8---|

Chorus:
e|----------------------|    |----------------|
B|----------------------|    |----------------|
G|-7777-4444-5555-------|    |----------------|
D|-7777-4444-5555-5555--| x3 |-8888-10101010--|
A|-5555-2222-3333-5555--|    |-8888-10101010--|
E|----------------3333--|    |-6666-8-8-8-8---|

Post-chorus:
e|-----x--------x-x-------x---------|
B|-----x--------x-x-------x---------|
G|-7-7-x-101010-x-x-------x---------| 
D|-7-7-x-101010-x-x-10-10-x-101010--| x2
A|-5-5-x-8-8-8--x-x-10-10-x-101010--|
E|-----x--------x-x-8--8--x-8-8-8---|

Verse: [Your eyes are fixed, your smile is so elastic.] 
e|-----x--------x-x-------x---------|
B|-----x--------x-x-------x---------|
G|-7-7-x-101010-x-x-------x---------| 
D|-7-7-x-101010-x-x-10-10-x-101010--| 
A|-5-5-x-8-8-8--x-x-10-10-x-101010--|
E|-----x--------x-x-8--8--x-8-8-8---|

Pre-chorus: [It won’t be long, my darlin’...]
e|-----x--------x-x-------x---------|
B|-----x--------x-x-------x---------|
G|-7-7-x-101010-x-x-------x---------| 
D|-7-7-x-101010-x-x-10-10-x-101010--| x4
A|-5-5-x-8-8-8--x-x-10-10-x-101010--|
E|-----x--------x-x-8--8--x-8-8-8---|

Chorus:
e|----------------------|    |----------------|
B|----------------------|    |----------------|
G|-7777-4444-5555-------|    |----------------|
D|-7777-4444-5555-5555--| x3 |-8888-10101010--|
A|-5555-2222-3333-5555--|    |-8888-10101010--|
E|----------------3333--|    |-6666-8-8-8-8---|

Bridge:
e|-------------------|    |--------------------------------------|
B|-------------------|    |--------------------------------------|
G|-7--7-77--7--7-77--|    |-77777777-44444444-55555555-----------|
D|-7--7-77--7--7-77--|    |-77777777-44444444-55555555-55555555--| x2
A|-5--5-55--5--5-55--|    |-55555555-22222222-33333333-55555555--|
E|-------------------|    |----------------------------33333333--|
                            [      Strum really quickly       ]

Chorus:
e|----------------------|    |----------------|
B|----------------------|    |----------------|
G|-7777-4444-5555-------|    |----------------|
D|-7777-4444-5555-5555--| x3 |-8888-10101010--|
A|-5555-2222-3333-5555--|    |-8888-10101010--|
E|----------------3333--|    |-6666-8-8-8-8---|

Outro:
e|-----x--------x-x-----|
B|-----x--------x-x-----|
G|-7-7-x-101010-x-x-----| 
D|-7-7-x-101010-x-x-10--| x2
A|-5-5-x-8-8-8--x-x-10--|
E|-----x--------x-x-8---|
            
Submit corrections

comments powered by Disqus
↑ Back to top | Selena Gomez Tabs for Falling Down. Lyrics for acoustic guitar and electric guitar. 1 Tablatures and chords are parodies/interpretations of the original songs. You may use it for private study, scholarship, research or language learning purposes only