>
 >
The Gift

The Gift Guitar Tabs

Seether - The Gift chords, tabs, tablatures, lyrics

Guitar lessons | Add/correct | Request | Top 50 tabs Artists:  A B C D E F G H I J K L M N O P Q R S T U V W X Y Z 0-9

The Gift Guitar Tabs – Seether

CD, Sheet music, Poster

Do you like The Gift? Share with your friends now
Bass TabsBass Tabs v2ChordsChords v2Chords v3Chords v4Chords v5TabsTabs v2Tabs v3Tabs v4Tabs v5Tabs v6Tabs v7Tabs v8UkuleleUkulele v2
-------------------------------------------------------------------------------
-------------------------------------------------------------------------------




Tuning: Drop D (Dadgbe)


Guitar I - Rhythm
Guitar II - Lead

Intro {Guitar I} [Clean]

e|------------------------------------------------------------------|
B|------------------------------------------------------------------|
G|--------4--------------3---------------1----1---------------------|
D|----6-----6--------4-----4---------2-----------4--2----4--2-------|
A|--6---6-----6----4---4-----4-----2---2---------------2------------|
D|------------------------------------------------------------------|

e|------------------------------------------------------------------|
B|------------------------------------------------------4-----------|
G|--------4--------------3---------------1----1---------4-----------|
D|----6-----6--------4-----4---------2-----------4--2---------------|
A|--6---6-----6----4---4-----4-----2---2----------------------------|
D|------------------------------------------------------------------|   2x


Intro {Guitar II} [Distortion] (0:18)

e|------------------------------------------------------------------|
B|-------/11---------/9---------------------------------------------|
G|----------11----------8-----/11-----------------------------------|
D|------------------------------------------------------------------|
A|---[6]--------[4]-------------------------------------------------|
D|-----[6]-------[4]------------------------------------------------|   2x


Verse {Guitar I} [Clean] (0:35)

e|------------------------------------------------------------------|
B|------------------------------------------------------------------|
G|--------4--------------3---------------1----1---------------------|
D|----6-----6--------4-----4---------2-----------4--2----4--2-------|
A|--6---6-----6----4---4-----4-----2---2---------------2------------|
D|------------------------------------------------------------------|

e|------------------------------------------------------------------|
B|------------------------------------------------------4-----------|
G|--------4--------------3---------------1----1---------4-----------|
D|----6-----6--------4-----4---------2-----------4--2---------------|
A|--6---6-----6----4---4-----4-----2---2----------------------------|
D|------------------------------------------------------------------|   2x

Verse {Guitar II} [Clean With Tremolo Effect] (0:34)

e|---------------------|
B|---------------------|
G|---4-----------------|
D|---4-----------------|
A|---------------------|
D|---------------------|   4x



Pre-Chorus {Guitar I} [Clean] (1:09)

e|---------------------------|
B|---------------------------|
G|---6----8------------------|
D|---4----6----2-------------|
A|---4----6----2-------------|
D|---4----6----2-------------|   2x


Pre-Chorus Solo {Guitar II} [Distortion] (1:13)

e|--------------------------------------------|
B|----/12-----------------/12-----------------|
G|---------9---11--9--8-------9---11b13r11----|
D|--------------------------------------------|
A|--------------------------------------------|
D|--------------------------------------------|   2x


Chorus {Guitar I} [Distortion] (1:27)

e|---------------------------------------------------------|
B|---------------------------------------------------------|
G|----4----------------------------------------------------|
D|----4------4------2------------6-----4-----2----x-x------|
A|----2------4------2------------6-----4-----2----x-x------|
D|-----------4------2------------6-----4-----2----x-x------|

e|---------------------------------------------------------|
B|---------------------------------------------------------|
G|----4----------------------------------------------------|
D|----4------4------2------------4-----6-----2-------------|
A|----2------4------2------------4-----6-----2-------------|
D|-----------4------2------------4-----6-----2-------------|


Chorus {Guitar II} [Distortion] (1:31)

e|------------------------------|
B|------------------------------|
G|------------------------------|
D|------------------------------|
A|-----\9----\7----\6----\4-----|
D|------------------------------|

e|------------------------------|
B|------------------------------|
G|------------------------------|
D|------------------------------|
A|---/9----/11----/13----/14----|
D|------------------------------|  

e|------------------------------|
B|------------------------------|
G|------------------------------|
D|------------------------------|
A|-----\9----\7----\6----\4-----|
D|------------------------------|


Small Solo {Guitar I} [Clean] (2:02)

e|------------------------------------------------------------------|
B|------------------------------------------------------------------|
G|--------4--------------3---------------1----1---------------------|
D|----6-----6--------4-----4---------2-----------4--2----4--2-------|
A|--6---6-----6----4---4-----4-----2---2---------------2------------|
D|------------------------------------------------------------------|

e|------------------------------------------------------------------|
B|------------------------------------------------------4-----------|
G|--------4--------------3---------------1----1---------4-----------|
D|----6-----6--------4-----4---------2-----------4--2---------------|
A|--6---6-----6----4---4-----4-----2---2----------------------------|
D|------------------------------------------------------------------|   2x


Small Solo {Guitar II} [Distortion] (2:02)

e|---------------------------------------------------------|
B|-------/11---------/9------------------------------------|
G|----------11----------8-----/11--------------------------|
D|---------------------------------------------------------|
A|---[6]--------[4]----------------------------------------|
D|-----[6]-------[4]---------------------------------------|   2x


Verse {Guitar I} [Clean] (2:17)

e|------------------------------------------------------------------|
B|------------------------------------------------------------------|
G|--------4--------------3---------------1----1---------------------|
D|----6-----6--------4-----4---------2-----------4--2----4--2-------|
A|--6---6-----6----4---4-----4-----2---2---------------2------------|
D|------------------------------------------------------------------|

e|------------------------------------------------------------------|
B|------------------------------------------------------4-----------|
G|--------4--------------3---------------1----1---------4-----------|
D|----6-----6--------4-----4---------2-----------4--2---------------|
A|--6---6-----6----4---4-----4-----2---2----------------------------|
D|------------------------------------------------------------------|   2x

Verse {Guitar II} [Clean With Tremolo Effect] (2:17)

e|---------------------|
B|---------------------|
G|---4-----------------|
D|---4-----------------|
A|---------------------|
D|---------------------|   4x



Pre-Chorus {Guitar I} [Clean] (2:51)

e|---------------------------|
B|---------------------------|
G|---6----8------------------|
D|---4----6----2-------------|
A|---4----6----2-------------|
D|---4----6----2-------------|   2x


Pre-Chorus {Guitar II} [Distortion] (2:55)

e|--------------------------------------------|
B|----/12-----------------/12-----------------|
G|---------9---11--9--8-------9---11b13r11----|
D|--------------------------------------------|
A|--------------------------------------------|
D|--------------------------------------------|   2x


Chorus {Guitar I} [Distortion] (3:08)

e|---------------------------------------------------------|
B|---------------------------------------------------------|
G|----4----------------------------------------------------|
D|----4------4------2------------6-----4-----2----x-x------|
A|----2------4------2------------6-----4-----2----x-x------|
D|-----------4------2------------6-----4-----2----x-x------|

e|---------------------------------------------------------|
B|---------------------------------------------------------|
G|----4----------------------------------------------------|
D|----4------4------2------------4-----6-----2-------------|
A|----2------4------2------------4-----6-----2-------------|
D|-----------4------2------------4-----6-----2-------------|



Chorus {Guitar II} [Distortion] (3:12)

e|------------------------------|
B|------------------------------|
G|------------------------------|
D|------------------------------|
A|-----\9----\7----\6----\4-----|
D|------------------------------|

e|------------------------------|
B|------------------------------|
G|------------------------------|
D|------------------------------|
A|---/9----/11----/13----/14----|
D|------------------------------|  

e|------------------------------|
B|------------------------------|
G|------------------------------|
D|------------------------------|
A|-----\9----\7----\6----\4-----|
D|------------------------------|


Solo {Guitar I} [Distortion] (3:42)

e|------------------|
B|------------------|
G|------------------|
D|---6----4----2----|
A|---6----4----2----|
D|---6----4----2----|   2x


Solo {Guitar II} [Distortion] (3:42)

e|---------------------------------------------------------------------------|
B|--12-----------------------------------------------------------------------|
G|--------9----11--9--8--9---8--------------------11-------------------------|
D|-------------------------------11--9--8--11b13------13p11--9---------------|
A|---------------------------------------------------------------------------|
D|---------------------------------------------------------------------------|

e|---------------------------------------------------------------------------|
B|--12-----------------------------------------------------------------------|
G|--------9----11--9--8--9---8--------------------11-------------------------|
D|-------------------------------11--9--8--11b13------13p11-11h13--9---------|
A|---------------------------------------------------------------------------|
D|---------------------------------------------------------------------------|


Bridge {Guitar I} [Clean] (4:00)

e|------------------------------------------------------------------|
B|------------------------------------------------------------------|
G|--------4--------------3---------------1----1---------------------|
D|----6-----6--------4-----4---------2-----------4--2----4--2-------|
A|--6---6-----6----4---4-----4-----2---2---------------2------------|
D|------------------------------------------------------------------|

e|-----------------------------------|
B|------------------------------4----|
G|--------4--------------3------4----|
D|----6-----6--------4-----4----4----|
A|--6---6-----6----4---4-----4-------|
D|-----------------------------------|


Chorus {Guitar I} [Distortion] (4:16)

e|---------------------------------------------------------|
B|---------------------------------------------------------|
G|----4----------------------------------------------------|
D|----4------4------2------------6-----4-----2----x-x------|
A|----2------4------2------------6-----4-----2----x-x------|
D|-----------4------2------------6-----4-----2----x-x------|

e|---------------------------------------------------------|
B|---------------------------------------------------------|
G|----4----------------------------------------------------|
D|----4------4------2------------4-----6-----2-------------|
A|----2------4------2------------4-----6-----2-------------|
D|-----------4------2------------4-----6-----2-------------|   


Chorus {Guitar II} [Distortion] (4:20)

e|------------------------------|
B|------------------------------|
G|------------------------------|
D|------------------------------|
A|-----\9----\7----\6----\4-----|
D|------------------------------|

(4:29)
e|------------------------------|
B|------------------------------|
G|------------------------------|
D|------------------------------|
A|---/9----/11----/13----/14----|
D|------------------------------|  

(4:37)
e|------------------------------|
B|------------------------------|
G|------------------------------|
D|------------------------------|
A|-----\9----\7----\6----\4-----|
D|------------------------------|


Outro {Guitar I} [Distortion] (4:48)

e|------------------|
B|------------------|
G|------------------|
D|---6----4----2----|
A|---6----4----2----|
D|---6----4----2----|   4x


Outro {Guitar II}[Distortion] (4:48)

e|---------------------------------------------------------------------------|
B|--12-----------------------------------------------------------------------|
G|--------9----11--9--8--9---8--------------------11-------------------------|
D|-------------------------------11--9--8--11b13------13p11--9---------------|
A|---------------------------------------------------------------------------|
D|---------------------------------------------------------------------------|   3x

e|---------------------------------------------------------------------------|
B|--12-----------------------------------------------------------------------|
G|--------9----11--9--8--9---8-----------------------------------------------|
D|-------------------------------11--9--8--11b13r11--11h13---9---------------|
A|---------------------------------------------------------------------------|
D|---------------------------------------------------------------------------|



| [] you can barely hear it.. but it is there
| /  slide up
| \  slide down
| h  hammer-on
| p  pull-off
| ~  vibrato
| +  harmonic
| x  Mute note
| b  Bend
| r  Release
===============================================================================





Comments


Popular Seether tabs & chords
Sympathetic 3 Bass Tabs
The Gift 2 Bass Tabs
Broken 4 Tabs
Fine Again 5 Tabs
Naked Tabs
Needles Tabs
Rise Above This 4 Tabs
Sympathetic 1 Tabs
Tied My Hands 1 Tabs
Your Bore 1 Tabs


Song lyrics



↑ Back to top | Tablatures and chords are parodies/interpretations of the original songs. You may use it for private study, scholarship, research or language learning purposes only
© 2014 AZChords.com Contact us | Privacy policy | DMCA | Add/correct tabs | Request tabs | Top 50 tabs