>
 >
Breakdown

Breakdown Guitar Tabs

Seether - Breakdown chords, tabs, tablatures, lyrics

Guitar lessons | Add/correct | Request | Top 50 tabs Artists:  A B C D E F G H I J K L M N O P Q R S T U V W X Y Z 0-9

Breakdown Guitar Tabs – Seether

CD, Sheet music, Poster

Do you like Breakdown? Share with your friends now
Bass TabsChordsChords v2TabsTabs v2Tabs v3Ukulele
EbAbDbGbBbEb tune down half step.
Guitar one-Rhythm
Guitar two-Lead

Intro-Verse One
Guitar one
eb--------------------------- ------------------------------|
Bb--------------------------- ------------------------------|
Gb-----4-4-4----------------- -----4-4-4---------------12---|
Db-5-4-2-2-2-9-7-4-4--4h5p4-- -5-4-2-2-2-9-7-12---12h14--14-|
Ab-2-2-2-2-2-0-0-0~-0~-----5- -2-2-2-2-2-0-0-0~-0~----------|
Eb-----0-0-0----------------- -----0-0-0--------------------|

Guitar two
eb----------------------------------------------------------|
Bb----------------------------------------------------------|
Gb----------------------------------------------------------|
Db----------------------------------------------------------|
Ab----------------------------------------------------------|
Eb----12~~~~~------------------0-------3-5--------------10--|
    *                        *       * *              *

Piano part
eb-24p0-19p0-22p0-24p0-19p0-22p0-24p0-19p0-\  R
Bb----------------------------------------- \ E
Gb-----------------------------------------  \P
Db-----------------------------------------  /E
Ab----------------------------------------- / A
Eb-----------------------------------------/  T

OR

eb-12p0-7p0-10p0-12p0-7P0-10P0-12p0-7p0-\  R
Bb-------------------------------------- \ E
Gb--------------------------------------  \P
Db--------------------------------------  /E
Ab-------------------------------------- / A
Eb--------------------------------------/  T

Chorus
Guitar one and two
eb---------------------------\  R --------------------|
Bb--------------------------- \ E --------------------|
Gb-5--5--5~--5-5-------4-4-4-  \P -2-2-2-2-2-2-2-2-5~-|
Db-5--5--5~--5-5---5-4-2-2-2-  /E -2-2-2-2-2-2-2-2-5~-|
Ab-3--3--3~--3-3---2-2-2-2-2- / A -0-0-0-0-0-0-0-0-3~-|
Eb-----------------0-0-0-0-0-/  T --------------------|

Verse Two
Guitar One
eb--------------------------- ----------------0--0---|
Bb--------------------------- -----------------3--3--|
Gb-----4-4-4----------------- ------4-4-4-2-2---2--2-|
Db-5-4-2-2-2-9-7-4-4--4h5p4-- --5-4-2-2-2-0-0--------|
Ab-2-2-2-2-2-0-0-0~-0~-----5- --2-2-2-2-2------------|
Eb-----0-0-0----------------- ------0-0-0------------|

Guitar One Continued
eb--------------------------- --------------------------------|
Bb--------------------------- --------------------------------|
Gb-----4-4-4----------------- ------4-4-4----------------12---|
Db-5-4-2-2-2-9-7-4-4--4h5p4-- --5-4-2-2-2-9-7-12-12-12-14--14-|
Ab-2-2-2-2-2-0-0-0~-0~-----5- --2-2-2-2-2-0-0-0--0~-----------|
Eb-----0-0-0----------------- ------0-0-0---------------------|

Guitar Two
eb----------------------------------------------- ------------------|
Bb----------------------------------------------- -10^^-0---12~---0-|
Gb-11-12-11-----11-12-11--11h12-11h12/14-12-11--- ------*---------*-|
Db--------12-9---------12--------------------12\7 ------------------|
Ab----------------------------------------------- ------------------|
Eb----------------------------------------------- ------------------|

Chorus
Guitar one and two
eb---------------------------\  R --------------------|
Bb--------------------------- \ E --------------------|
Gb-5--5--5~--5-5-------4-4-4-  \P -2-2-2-2-2-2-2-2-5~-|
Db-5--5--5~--5-5---5-4-2-2-2-  /E -2-2-2-2-2-2-2-2-5~-|
Ab-3--3--3~--3-3---2-2-2-2-2- / A -0-0-0-0-0-0-0-0-3~-|
Eb-----------------0-0-0-0-0-/  T --------------------|

Bridge
Guitar One   Rhythm for Solo
eb-------------------------  ----------------------------\  R  -0-0-0-0-0-0-|
Bb-------------------------  ---------------------------- \ E  -0-0-0-0-0-0-|
Gb-5--5--5--5-5------------  -5--5--5--5-5--------4--4-4-  \P  -2-2-2-2-2-2-|
Db-5--5--5--5-5-2--2--2-2-2  -5--5--5--5-5--5--4--2--2-2-  /E  -2-2-2-2-2-2-|
Ab-3--3--3--3-3-2--2--2-2-2  -3--3--3--3-3--2--2--2--2-2- / A  -0-0-0-0-0-0-|
Eb--------------0--0--0-0-0  ---------------0--0--0--0-0-/  T  -------------|
                                                            Figure Out Stumm
                                                            Pattern
Guitar Two   Solo    
eb---------------------------------------------------|
Bb---------------------------------------------------|
Gb-11h12p11----11h12p11----11h12p11h12/14-12-11------|
Db--------12-9--------12-9---------------------12\7--|
Ab---------------------------------------------------|
Eb---------------------------------------------------|

Solo Continued
eb--------------------------------------------------------------------------|
Bb--------------------------------------/17-15------------------------------|
Gb11h12p11----11h12p11----11h12-11h12/14------16-14/16\14--14/16~-----14/16~|
Db-------12-9--------12-9----------------------------------12/14~-12--12/14~|
Ab--------------------------------------------------------------------------|
Eb--------------------------------------------------------------------------|

Outro
Guitar One
eb---------------------------------------------------------------\  R
Bb--------------------------------------------------------------- \ E
Gb-5--5--5--5-5--------4--4-4--5--5--5--5-5--------4--4-4--------  \P
Db-5--5--5--5-5--5--4--2--2-2--5--5--5--5-5--5--4--2--2-2--------  /E
Ab-3--3--3--3-3--2--2--2--2-2--3--3--3--3-3--2--2--2--2-2-------- / A
Eb---------------0--0--0--0-0----------------0--0--0--0-0--------/  THEN

Guitar Two
eb------------------\  R -7-7-7-7-7-7/10--|
Bb------------------ \ E -5-5-5-5-5-5/ 8--|
Gb-11~-12-11-9~-7~--  \P -----------------|
Db------------------  /E -----------------|
Ab------------------ / A -----------------|
Eb------------------/  T -----------------|

/=Slide Down
\=Slide Up
*=Harmincs
~=Ring





Comments


Popular Seether tabs & chords
The Gift 3 Chords
Beer Tabs
Careless Whisper Tabs
Fake It 2 Tabs
Fake It 4 Tabs
Fake It 5 Tabs
Gasoline 2 Tabs
Hang On Tabs
Sympathetic 3 Tabs
Broken Ukulele


Song lyrics



↑ Back to top | Tablatures and chords are parodies/interpretations of the original songs. You may use it for private study, scholarship, research or language learning purposes only
© 2014 AZChords.com Contact us | Privacy policy | DMCA | Add/correct tabs | Request tabs | Top 50 tabs