» » »

Seether, Country Song Bass tabs (ver.1)

Artists:  A B C D E F G H I J K L M N O P Q R S T U V W X Y Z # 

Country Song Bass tabs (ver.1)

Seether Tabs
Rating:
0/5 (0 votes)
Country Song lessons Tabs too difficult? Try these video lessons and learn fast
                Country Song-Seether
Bass Tab
Standard Tuning

First Time tabbing should be right

G|---------------]    G[------------]
D|---------------] X2 D[--5-5-3-5-3-]
A|--5-5-5-5-5-5--]    A[------------]
E|---------------]    E[------------]

G|---------------]    G[------------]
D|---------------] X2 D[--5-5-3-5-3-]
A|--5-5-5-5-5-5--]    A[------------]
E|---------------]    E[------------]

G|----------------------------------]
D|--3-3-3-3-5-5-5-5-3-3-3-3-5-5-3-5-]
A|----------------------------------]
E|----------------------------------]

G|----------------------------------]
D|------------------5-5-5-5-3-3-3-3-] X4
A|--5-5-5-5-3-3-3-3-----------------]
E|----------------------------------]

G|------------------]
D|------------------] until You stay cause you think you want me.
A|--5-5-5-5-5-5-5-5-]
E|------------------]

G|------------------]
D|------------------]
A|--5-5-5-5-5-5-5-5-]
E|------------------]

G|--------------------]
D|----------5-5-3-5-3-]
A|--5-5-5-5-----------]
E|--------------------]

G|------------------]
D|------------------]
A|--5-5-5-5-5-5-5-5-]
E|------------------]

G|--------------------]
D|----------5-5-3-5-3-]
A|--5-5-5-5-----------]
E|--------------------]


G|----------------------------------]
D|------------------5-5-5-5-3-3-3-3-] X5
A|--5-5-5-5-3-3-3-3-----------------]
E|----------------------------------]

G|----------------------------]
D|------------------5-5-3-5-3-]
A|--5-5-5-5-3-3-3-3-----------]
E|----------------------------]


G|----------------------------------]
D|------------------5-5-5-5-3-3-3-3-] 
A|--5-5-5-5-3-3-3-3-----------------]
E|----------------------------------]

G|----------------------------]
D|------------------5-5-3-5-3-]
A|--5-5-5-5-3-3-3-3-----------]
E|----------------------------]

G|------------------]       G|----------]
D|------------------] X7    D|--5-5-3-5-]
A|--5-5-5-5-3-3-3-3-]       A|----------]
E|------------------]       E|----------]

G|----------------------------------]
D|------------------5-5-5-5-3-3-3-3-] X5
A|--5-5-5-5-3-3-3-3-----------------]
E|----------------------------------]

G|----------------------------]
D|------------------5-5-3-5-3-]
A|--5-5-5-5-3-3-3-3-----------]
E|----------------------------]

G|----------------------------------]
D|------------------5-5-5-5-3-3-3-3-] 
A|--5-5-5-5-3-3-3-3-----------------]
E|----------------------------------]

G|----------------------------]]
D|------------------5-5-3-5-3-]]
A|--5-5-5-5-3-3-3-3-----------]]
E|----------------------------]]
            

comments powered by Disqus
↑ Back to top | Seether Bass for Country Song. Lyrics for acoustic guitar and electric guitar. Tablatures and chords are parodies/interpretations of the original songs. You may use it for private study, scholarship, research or language learning purposes only