» » »

Fake It Tabs (ver.1)

Artists:  A B C D E F G H I J K L M N O P Q R S T U V W X Y Z # 

Fake It Tabs (ver.1)

Seether
Rating:
0/5 (0 votes)

Hard to play? Try these video lessons and learn fast.
                This may not be the exact way that Seether plays, but I'm pretty sure about it. This is 
first tab so don't bash me if it's lame. ;)

Verse:

D-----------------------------------------|
A-----------------------------------------|
F----7--7------------5--5-----------------|     (x4)
C----7--7-X--3-3--X--5--5--X--5--5--3-----|
G----5--5-X--3-3--X--3--3--X--5--5--3-----|
C---------X--3-3--X--------X--5--5--3-----|

Chorus:

D--------------------------------|
A--------------------------------|
F---------------------------5----|     (x3)
C----0--X--0--X--3--X-3--3--5----|
G----0--X--0--X--3--X-3--3--3----|
C----0--X--0--X--3--X-3--3-------|

End of Chorus: (Whoa, you're such a fuc*in' hypocrtie)


D-------------------------------------|
A-------------------------------------|
F----------------5--5-----------------|
C----0--0--3--3--5--5--5--3--0--0--12-|
G----0--0--3--3--3--3--5--3--0--0--12-|
C----0--0--3--3--------5--3--0--0--12-|

Verse:

D---------------------------------------|
A---------------------------------------|
F----7-7------------5--5----------------|     (x4)
C----7-7-X--3-3--X--5--5-X--5--5--3-----|
G----5-5-X--3-3--X--3--3-X--5--5--3-----|
C--------X--3-3--X-------X--5--5--3-----|

Chorus:

D---------------------------------|
A---------------------------------|
F----------------------------5----|     (x3)
C----0--X--0--X--3--X--3--3--5----|
G----0--X--0--X--3--X--3--3--3----|
C----0--X--0--X--3--X--3--3-------|

End of Chorus: (Whoa, you're such a fuc*in' hypocrtie)

D-----------------------------|
A-----------------------------|
F--------------5-5------------|
C----0-0--3-3--5-5--5-3-------|
G----0-0--3-3--3-3--5-3-------|
C----0-0--3-3-------5-3-------|

Pre-bridge:

D-----------------------------------------|
A-----------------------------------------|
F-----------------------------------------|
C----3--3--3--3/7--7--7--7--7--0--0--0--0-|
G----3--3--3--3/7--7--7--7--7--0--0--0--0-|
C----3--3--3--3/7--7--7--7--7--0--0--0--0-|

D---------------------------------------|
A---------------------------------------|
F----7--7--7--5--5--5-------------------|
C----7--7--7--5--5--5--5--5--5--3--3--3-|
G----5--5--5--3--3--3--5--5--5--3--3--3-|
C----------------------5--5--5--3--3--3-|

Solo:

D------------------------------------------------|
A------------------------------------------------|
F----9--10--9------------------------------------|
C--------------10--12--10--12--------------------|
G------------------------------10--12--10--12--8-|
C------------------------------------------------|

D-----------------------------------------------|
A-----------------------------------------------|
F----9--10--9------------------10--12--14-------|
C--------------10--12--10--12-------------------|
G-----------------------------------------------|
C-----------------------------------------------|

D------------------------------------------------|
A------------------------------------------------|
F----9--10--9------------------------------------|
C--------------10--12--10--12--------------------|
G------------------------------10--12--10--12--8-|
C------------------------------------------------|

D----------------------------------------------10-|
A------------------------------10--10--12--13-----|
F----9--10--9----------10--12---------------------|
C--------------10--12-----------------------------|
G-------------------------------------------------|
C-------------------------------------------------|

I'm still working on the bridge. Hopefully, I'll have it posted soon. I'm pretty sure 
this is the correct way to play it. Enjoy! :)
            
Hard to play? Try these video lessons and learn fast. | Correct




comments powered by Disqus
↑ Back to top | Tablatures and chords are parodies/interpretations of the original songs. You may use it for private study, scholarship, research or language learning purposes only