» » »

Star Crossed Bass tabs (ver.1)

Artists:  A B C D E F G H I J K L M N O P Q R S T U V W X Y Z # 

Star Crossed Bass tabs (ver.1)

Scary Kids Scaring Kids
Rating:
0/5 (0 votes)

Hard to play? Try these video lessons and learn fast.
                Scary Kids Scaring Kids - Star Crossed

This is my first tab ever, so it might not be perfect. I think it's still pretty good, 
and sounds great when playing along the song.



Drop-D Tuning (GDAD)
Time Signature : 3/4


Intro (0:00 - 0:17)

G|-------------|-------------|-------------|-------------|
D|-------------|-------------|-------------|-------------|
A|-------------|-------------|-------------|-------------|
D|-------------|-------------|-------------|-------------|

G|-------------|-------------|-------------|-------------|
D|-------------|-------------|-------------|-6-4---------|
A|-------------|-------------|-------------|-----6-4-----|
D|-------------|-------------|-------------|---------9-8-|


Verse 1 (0:18 - 0:53)

G|-------------|-------------|-------------|-------------|
D|-------------|-------------|-------------|-------------|
A|-------------|-------------|-2-----------|-4-----------|
D|-6-----------|-8-----------|-------------|-------------|

G|-------------|-------------|-------------|-------------|
D|-------------|-------------|-------------|-6-4---------|
A|-7---7-7-7-7-|-7---7-7-7-7-|-7---7-7-7-7-|-----6-4-----|
D|-------------|-------------|-------------|---------9-8-|

G|-------------|-------------|-------------|-------------|
D|-------------|-------------|-------------|-------------|
A|-------------|-------------|-2-----------|-4-----------|
D|-6-----------|-8-----------|-------------|-------------|

G|-------------|-------------|-------------|-------------|
D|-------------|-------------|-------------|-------------|
A|-------------|-------------|-------------|-------------|
D|-2---2-2-2-2-|-2---2-2-2-2-|-2---2-2-2-2-|-1---1-1-1-1-|

G|-------------|-------------|-------------|-------------|
D|-------------|-------------|-------------|-------------|
A|-------------|-------------|-2-----------|-4-----------|
D|-6-----------|-8-----------|-------------|-------------|

G|-------------|-------------|-------------|-------------|
D|-------------|-------------|-------------|-6-4---------|
A|-7---7-7-7-7-|-7---7-7-7-7-|-7---7-7-7-7-|-----6-4-----|
D|-------------|-------------|-------------|---------9-8-|

G|-------------|-------------|-------------|-------------|
D|-------------|-------------|-------------|-------------|
A|-------------|-------------|-2-----------|-4-----------|
D|-6-----------|-8-----------|-------------|-------------|

G|-------------|-------------|-------------|-------------|
D|-------------|-------------|-------------|-------------|
A|-------------|-------------|-------------|-------------|
D|-2---2-2-2-2-|-2---2-2-2-2-|-1---1-1-1-1-|-1---1-1-1-1-|


Chorus 1 (0:54 - 1:12)

G|-------------|-------------|-------------|-------------|
D|-------------|-------------|-------------|-------------|
A|-------------|-------------|-------------|-------------|
D|-2---2-2-2-2-|-2---2-2-2-2-|-2---2-2-2-2-|-4---4-4-4-4-|

G|-------------|-------------|-------------|-------------|
D|-------------|-------------|-------------|-------------|
A|-------------|-------------|-2-----------|-4-----------|
D|-6-----------|-8-----------|-------------|-------------|

G|-------------|-------------|-------------|-------------|
D|-------------|-------------|-------------|-------------|
A|-------------|-------------|-------------|-------------|
D|-2---2-2-2-2-|-2---2-2-2-2-|-2---2-2-2-2-|-4---4-4-4-4-|

G|-------------|-------------|-------------|-------------|
D|-------------|-------------|-------------|-------------|
A|-------------|-------------|-------------|-------------|
D|-6---6-6-6-6-|-6---6-6-6-6-|-1---1-1-1-1-|-1---1-1-1-1-|


Verse 2 (1:12 - 1:47)

G|-------------|-------------|-------------|-------------|
D|-------------|-------------|-------------|-------------|
A|-------------|-------------|-2-----------|-4-----------|
D|-6-----------|-8-----------|-------------|-------------|

G|-------------|-------------|-------------|-------------|
D|-------------|-------------|-------------|-6-4---------|
A|-7---7-7-7-7-|-7---7-7-7-7-|-7---7-7-7-7-|-----6-4-----|
D|-------------|-------------|-------------|---------9-8-|

G|-------------|-------------|-------------|-------------|
D|-------------|-------------|-------------|-------------|
A|-------------|-------------|-2-----------|-4-----------|
D|-6-----------|-8-----------|-------------|-------------|

G|-------------|-------------|-------------|-------------|
D|-------------|-------------|-------------|-------------|
A|-------------|-------------|-------------|-------------|
D|-2---2-2-2-2-|-2---2-2-2-2-|-2---2-2-2-2-|-1---1-1-1-1-|

G|-------------|-------------|-------------|-------------|
D|-------------|-------------|-------------|-------------|
A|-------------|-------------|-2-----------|-4-----------|
D|-6-----------|-8-----------|-------------|-------------|

G|-------------|-------------|-------------|-------------|
D|-------------|-------------|-------------|-6-4---------|
A|-7---7-7-7-7-|-7---7-7-7-7-|-7---7-7-7-7-|-----6-4-----|
D|-------------|-------------|-------------|---------9-8-|

G|-------------|-------------|-------------|-------------|
D|-------------|-------------|-------------|-------------|
A|-------------|-------------|-2-----------|-4-----------|
D|-6-----------|-8-----------|-------------|-------------|

G|-------------|-------------|-------------|-------------|
D|-------------|-------------|-------------|-------------|
A|-------------|-------------|-------------|-------------|
D|-2---2-2-2-2-|-2---2-2-2-2-|-1---1-1-1-1-|-1---1-1-1-1-|


Chorus 1 (1:48 - 2:06)

G|-------------|-------------|-------------|-------------|
D|-------------|-------------|-------------|-------------|
A|-------------|-------------|-------------|-------------|
D|-2---2-2-2-2-|-2---2-2-2-2-|-2---2-2-2-2-|-4---4-4-4-4-|

G|-------------|-------------|-------------|-------------|
D|-------------|-------------|-------------|-------------|
A|-------------|-------------|-2-----------|-4-----------|
D|-6-----------|-8-----------|-------------|-------------|

G|-------------|-------------|-------------|-------------|
D|-------------|-------------|-------------|-------------|
A|-------------|-------------|-------------|-------------|
D|-2---2-2-2-2-|-2---2-2-2-2-|-2---2-2-2-2-|-4---4-4-4-4-|

G|-------------|-------------|-------------|-------------|
D|-------------|-------------|-------------|-------------|
A|-------------|-------------|-------------|-------------|
D|-6---6-6-6-6-|-6---6-6-6-6-|-1---1-1-1-1-|-1---1-1-1-1-|


Break (2:06 - 2:44)

G|-------------|-------------|-------------|-------------|
D|-------------|-------------|-------------|-------------|
A|-2-2--2--2-2-|-2---2-2-2-2-|-2/4--4--4-4-|-4---4-4-4-4-|
D|-------------|-------------|-------------|-------------|

G|-------------|-------------|-------------|-------------|
D|-4/6--6--6-6-|-6---6-6-6-6-|-------------|-4/6--4------|
A|-------------|-------------|-------------|---------6---|
D|-------------|-------------|-6---6-6-6-6-|-------------|

G|-------------|-------------|-------------|-------------|
D|-------------|-------------|-------------|-------------|
A|-2-2--2--2-2-|-2---2-2-2-2-|-2/4--4--4-4-|-4---4-4-4-4-|
D|-------------|-------------|-------------|-------------|

G|-------------|-------------|-------------|-------------|
D|-4/6--6--6-6-|-------------|-4/6--6--6-6-|-4/6--4------|
A|-------------|-------------|-------------|---------6---|
D|-------------|-6---6-6-6-6-|-------------|-------------|

G|-------------|-------------|-------------|-------------|
D|-------------|-------------|-------------|-------------|
A|-------------|-------------|-------------|-------------|
D|-2---2-2-2-2-|-2-2-2-2-2-2-|-2---2-2-2-2-|-2-2-2-2-2-2-|

G|-------------|-------------|-------------|-------------|
D|-------------|-------------|-------------|-------------|
A|-------------|-------------|-7/9--9--9-9-|-9-9-7h9-6h7-|
D|-4---4-4-4-4-|-4-4-4-4-4/9-|-------------|-------------|

G|-------------|-------------|-------------|-------------|
D|-------------|-------------|-------------|-------------|
A|-------------|-------------|-2-----------|-4-----------|
D|-6-----------|-8-----------|-------------|-------------|

G|-------------|-------------|-------------|-------------|
D|-------------|-------------|-------------|-------------|
A|-7-----------|-------------|-6-----------|-------------|
D|-------------|-------------|-------------|-------------|

G|-------------|-------------|
D|-------------|-------------|
A|-------------|-------------|
D|-------------|-------------|


Chorus 2 (2:45 - 3:15)

G|-------------|-------------|-------------|-------------|
D|-------------|-------------|-------------|-------------|
A|-------------|-------------|-------------|-------------|
D|-2---2-2-2-2-|-2---2-2-2-2-|-2---2-2-2-2-|-4---4-4-4-4-|

G|-------------|-------------|-------------|-------------|
D|-------------|-------------|-------------|-------------|
A|-------------|-------------|-2-----------|-4-----------|
D|-6-----------|-8-----------|-------------|-------------|

G|-------------|-------------|-------------|-------------|
D|-------------|-------------|-------------|-------------|
A|-------------|-------------|-------------|-------------|
D|-2---2-2-2-2-|-2---2-2-2-2-|-2---2-2-2-2-|-4---4-4-4-4-|

G|-------------|-------------|-------------|-------------|
D|-------------|-------------|-------------|-------------|
A|-------------|-------------|-2-----------|-4-----------|
D|-6-----------|-8-----------|-------------|-------------|

G|-------------|-------------|-------------|-------------|
D|-------------|-------------|-------------|-------------|
A|-6h7--7--7-7-|-7---7-7-7-7-|-6h7--7--7-7-|-7/9-9-9-9-9-|
D|-------------|-------------|-------------|-------------|

G|-------------|-------------|-------------|-------------|
D|-------------|-------------|-------------|-------------|
A|-------------|-------------|-2-----------|-4-----------|
D|-6-----------|-8-----------|-------------|-------------|

G|-------------|-------------|-------------|-------------|
D|-------------|-------------|-------------|-------------|
A|-6h7--7--7-7-|-7--7--6--4--|-2h4-4-4-4-2-|-------------|
D|-------------|-------------|-------------|-2---4---5---|


Outro (3:16 - 3:41)

G|-------------|-------------|-------------|-------------|
D|-------------|-------------|-------------|-------------|
A|-------------|-------------|-2-----------|-4-----------|
D|-6-----------|-8-----------|-------------|-------------|

G|-------------|-------------|-------------|-------------|
D|-------------|-------------|-------------|-------------|
A|-7-----------|-------------|-6-----------|-------------|
D|-------------|-------------|-------------|-------------|

G|-------------|-------------|-------------|-------------|
D|-------------|-------------|-------------|-------------|
A|-------------|-------------|-------------|-------------|
D|-6-----------|-------------|-------------|-------------|


| /  slide up
| \  slide down
| h  hammer-on
| p  pull-off
| ~  vibrato
| +  harmonic
| x  Mute note
            
Hard to play? Try these video lessons and learn fast. | Correct




comments powered by Disqus
↑ Back to top | Tablatures and chords are parodies/interpretations of the original songs. You may use it for private study, scholarship, research or language learning purposes only