>
 >
Degenerates

Degenerates Guitar Tabs

Scary Kids Scaring Kids - Degenerates chords, tabs, tablatures, lyrics

Guitar lessons | Add/correct | Request | Top 50 tabs Artists:  A B C D E F G H I J K L M N O P Q R S T U V W X Y Z 0-9

Degenerates Guitar Tabs – Scary Kids Scaring Kids

CD, Sheet music, Poster

Do you like Degenerates? Share with your friends now
Bass TabsTabs
-----------------------------------------------------------------------------
-----------------------------------------------------------------------------

Tuning: 

Intro
e|--------1-0---------------------------------------------------------------|
B|-3(x18)-3-2---------------------------------------------------------------|
G|--------------------------------------------------------------------------|
D|--------------------------------------------------------------------------|
A|--------------------------------------------------------------------------|
D|--------------------------------------------------------------------------|
-----------------------------------------------------------------------------

Intro Pt. 2  x2
e|--------------------------------------------------------------------------|
B|--------------------------------------------------------------------------|
G|--------------------------------------------------------------------------|
D|-88-8-88-8-8-88-8-8-10-10-10-77-7-77-7-7-77-7-77-7-7----------------------|
A|-88-8-88-8-8-88-8-8-10-10-10-77-7-77-7-7-77-7-77-7-7----------------------|
D|-88-8-88-8-8-88-8-8-10-10-10-77-7-77-7-7-77-7-77-7-7----------------------|
-----------------------------------------------------------------------------

Verse x3
A|--------------------------------------------------------------------------|
B|--------------------------------------------------------------------------|
G|--------------------------------------------------------------------------|
D|-------0-5-7-------------------0-5-7--------------------------------------|
A|-0-5-7-------0-5-7-0-5-7-0-5-7-------0-5-7-0 3/5--------------------------|
D|--------------------------------------------------------------------------|
---.-.-.-.-.-.-.-.-.-.-.-.-.-.-.-.-.-.-.-.-.-.-------------------------------

e|--------------------------------------------------------------------------|
A|--------------------------------------------------------------------------|
B|--------------------------------------------------------------------------|
G|--------------------------------------------------------------------------|
D|-----7-7-5-5-----7-7-5-5-----5-5-3-3-----5-5-3-3--------------------------|
A|-0-0-8-8-7-7-0-0-8-8-7-7-0-0-7-7-5-5-0-0-7-7-5-5--------------------------|
D|--------------------------------------------------------------------------|
---.-.---------.-.---------.-.---------.-.-----------------------------------

Verse Pt. 2 (Guitar 1)
e|------------------------------------------------------------------------------|
B|------------------------------------------------------------------------------|
G|------------------------------------------------------------------------------|
D|------------------------------------------------------------------------------|
A|------------3-----0----------3-----3---5------------3-----0----------1---1-3-5|
D|-0-0000-0h3---0h3---000-0000---3-0---0---0-0000-0h3---0h3---000-0000---5------|
-----....-.-----.-----...-....-----.---.---.-....-.-----.-----...-....-----------

Verse Pt. 2 (Guitar 2/ Just last part)
e|--------------------------------------------------------------------------|
B|--------------------------------------------------------------------------|
G|--------------------------------------------------------------------------|
D|--------------------------------------------------------------------------|
A|-5---5-7-8----------------------------------------------------------------|
D|---8----------------------------------------------------------------------|
-----------------------------------------------------------------------------

Chorus  x2
e|--------------------------------------------------------------------------|
B|--------------------------------------------------------------------------|
G|--------------------------------------------------------------------------|
D|-88-8-88-8-8-88-8-8-10-10-10-77-7-77-7-7-77-7-77-7-7----------------------|
A|-88-8-88-8-8-88-8-8-10-10-10-77-7-77-7-7-77-7-77-7-7----------------------|
D|-88-8-88-8-8-88-8-8-10-10-10-77-7-77-7-7-77-7-77-7-7----------------------|
-----------------------------------------------------------------------------

Verse 2 x3
A|--------------------------------------------------------------------------|
B|--------------------------------------------------------------------------|
G|--------------------------------------------------------------------------|
D|-------0-5-7-------------------0-5-7--------------------------------------|
A|-0-5-7-------0-5-7-0-5-7-0-5-7-------0-5-7-0 3/5--------------------------|
D|--------------------------------------------------------------------------|
---.-.-.-.-.-.-.-.-.-.-.-.-.-.-.-.-.-.-.-.-.-.-------------------------------

e|--------------------------------------------------------------------------|
A|--------------------------------------------------------------------------|
B|--------------------------------------------------------------------------|
G|--------------------------------------------------------------------------|
D|-----7-7-5-5-----7-7-5-5-----5-5-3-3-----5-5-3-3--------------------------|
A|-0-0-8-8-7-7-0-0-8-8-7-7-0-0-7-7-5-5-0-0-7-7-5-5--------------------------|
D|--------------------------------------------------------------------------|
---.-.---------.-.---------.-.---------.-.-----------------------------------

Verse 2 Pt. 2 (Guitar 1)
e|------------------------------------------------------------------------------|
B|------------------------------------------------------------------------------|
G|------------------------------------------------------------------------------|
D|------------------------------------------------------------------------------|
A|------------3-----0----------3-----3---5------------3-----0----------1---1-3-5|
D|-0-0000-0h3---0h3---000-0000---3-0---0---0-0000-0h3---0h3---000-0000---5------|
-----....-.-----.-----...-....-----.---.---.-....-.-----.-----...-....-----------

Verse 2 Pt. 2 (Guitar 2/ Just last part)
e|--------------------------------------------------------------------------|
B|--------------------------------------------------------------------------|
G|--------------------------------------------------------------------------|
D|--------------------------------------------------------------------------|
A|-5---5-7-8----------------------------------------------------------------|
D|---8----------------------------------------------------------------------|
-----------------------------------------------------------------------------

Chorus 
e|--------------------------------------------------------------------------|
B|--------------------------------------------------------------------------|
G|--------------------------------------------------------------------------|
D|-88-8-88-8-8-88-8-8-10-10-10-77-7-77-7-7-77-7-77-7-7----------------------|
A|-88-8-88-8-8-88-8-8-10-10-10-77-7-77-7-7-77-7-77-7-7----------------------|
D|-88-8-88-8-8-88-8-8-10-10-10-77-7-77-7-7-77-7-77-7-7----------------------|
-----------------------------------------------------------------------------

Chorus Pt.2
e|--------------------------------------------------------------------|
B|--------------------------------------------------------------------|
G|--------------------------------------------------------------------|
D|-00-0-00-0-0-22-2-22-2-2-33-3-33-3-3-55-5-55-5-5-88-8-88-8-8-88-8-8-|
A|-00-0-00-0-0-22-2-22-2-2-33-3-33-3-3-55-5-55-5-5-88-8-88-8-8-88-8-8-|
D|-00-0-00-0-0-22-2-22-2-2-33-3-33-3-3-55-5-55-5-5-88-8-88-8-8-88-8-8-|
-----------------------------------------------------------------------

e|--------------------------------------------------------------------------|
B|--------------------------------------------------------------------------|
G|--------------------------------------------------------------------------|
D|-10-10-10-77-7-77-7-7-3333333-222222-0~-----------------------------------|
A|-10-10-10-77-7-77-7-7-3333333-222222-0~-----------------------------------|
D|-10-10-10-77-7-77-7-7-3333333-222222-0~-----------------------------------|
-----------------------------------------------------------------------------

Interlude Pt. 1
e|--------------------------------------------------------------------------|
B|--------------------------------------------------------------------------|
G|--------------------------------------------------------------------------|
D|-0-0000-0-0000-----------0-0000-0-0000-0000-000-0-0000-0-0000-------------|
A|-0-0000-0-0000-----------0-0000-0-0000-0000-000-0-0000-0-0000-------------|
D|-0-0000-0-0000--6-6-3-5--0-0000-0-0000-0000-000-0-0000-0-0000-12\0--------|
---.-....-.-....-----------.-....-.-....-....-...-.-....-.-....--------------

Interlude Pt. 2 
e|----------------------------------------------------------------------|
B|----------------------------------------------------------------------|
G|----------------------------------------------------------------------|
D|-0-0000-0-0000-0000-000-7-7777-7-7777-7777-777-8-8888-8-8888-8888-888-|
A|-0-0000-0-0000-0000-000-7-7777-7-7777-7777-777-8-8888-8-8888-8888-888-|
D|-0-0000-0-0000-0000-000-7-7777-7-7777-7777-777-8-8888-8-8888-8888-888-|
---.-....-.-....-....-...-.-....-.-....-....-...-.-....-.-....-....-...--

e|--------------------------------------------------------------------------|
B|--------------------------------------------------------------------------|
G|--------------------------------------------------------------------------|
D|-10-10101010-10-10101010-10101010-101010----------------------------------|
A|-10-10101010-10-10101010-10101010-101010----------------------------------|
D|-10-10101010-10-10101010-10101010-101010----------------------------------|
---..-........-..-........-........-......-----------------------------------

e|----------------------------------------------------------------------|
B|----------------------------------------------------------------------|
G|----------------------------------------------------------------------|
D|-5-5555-5-5555-5555-555-7-7777-7-7777-7777-777-8-8888-8-8888-8888-888-|
A|-5-5555-5-5555-5555-555-7-7777-7-7777-7777-777-8-8888-8-8888-8888-888-|
D|-5-5555-5-5555-5555-555-7-7777-7-7777-7777-777-8-8888-8-8888-8888-888-|
---.-....-.-....-....-...-.-....-.-....-....-...-.-....-.-....-....-...--

e|--------------------------------------------------------------------------|
B|--------------------------------------------------------------------------|
G|-----------------6-6-6-6-6-6-6-6------------------------------------------|
D|-3-3-3-3-3-3-3-3-6-6-6-6-6-6-6-6------------------------------------------|
A|-3-3-3-3-3-3-3-3-4-4-4-4-4-4-4-4------------------------------------------|
D|-3-3-3-3-3-3-3-3----------------------------------------------------------|
-----------------------------------------------------------------------------

e|----------------------------------------------------------------------|
B|----------------------------------------------------------------------|
G|----------------------------------------------------------------------|
D|-0-0000-0-0000-0000-000-7-7777-7-7777-7777-777-8-8888-8-8888-8888-888-|
A|-0-0000-0-0000-0000-000-7-7777-7-7777-7777-777-8-8888-8-8888-8888-888-|
D|-0-0000-0-0000-0000-000-7-7777-7-7777-7777-777-8-8888-8-8888-8888-888-|
---.-....-.-....-....-...-.-....-.-....-....-...-.-....-.-....-....-...--

e|--------------------------------------------------------------------------|
B|--------------------------------------------------------------------------|
G|--------------------------------------------------------------------------|
D|-10-10101010-10-10101010-10101010-101010----------------------------------|
A|-10-10101010-10-10101010-10101010-101010----------------------------------|
D|-10-10101010-10-10101010-10101010-101010----------------------------------|
---..-........-..-........-........-......-----------------------------------

e|-------------------------------------------------------------------------|
B|-------------------------------------------------------------------------|
G|-------------------------------------------------------------------------|
D|-5-555555-5-555555-5-555555-5-555555-7-777777-7-777777-7-777777-7-777777-|
A|-5-555555-5-555555-5-555555-5-555555-7-777777-7-777777-7-777777-7-777777-|
D|-5-555555-5-555555-5-555555-5-555555-7-777777-7-777777-7-777777-7-777777-|
---.-......-.-......-.-......-.-......-.-......-.-......-.-......-.-......--

e|--------------------------------------------------------------------------|
B|--------------------------------------------------------------------------|
G|-----------------------------------------------------6-6-6-6-6-6-6-6------|
D|-8-888888-8-888888-8-888888-8-888888-3-3-3-3-3-3-3-3-6-6-6-6-6-6-6-6------|
A|-8-888888-8-888888-8-888888-8-888888-3-3-3-3-3-3-3-3-4-4-4-4-4-4-4-4------|
D|-8-888888-8-888888-8-888888-8-888888-3-3-3-3-3-3-3-3----------------------|
---.-......-.-......-.-......-.-......---------------------------------------

Outro
e|-----------------------------------------------------------------------------------------------|
B|-----------------------------------------------------------------------------------------------|
G|-----------------------------------------------------------------------------------------------|
D|-0-0000-0-0000---------0-0000-0-0000-0000---------0-0000-0-0000-00000000---------0-0000-0-0000-|
A|-0-0000-0-0000---------0-0000-0-0000-0000---------0-0000-0-0000-00000000---------0-0000-0-0000-|
D|-0-0000-0-0000-6-6-3-5-0-0000-0-0000-0000-6-6-3-5-0-0000-0-0000-00000000-6-6-3-5-0-0000-0-0000-|
---.-....-.-....---------.-....-.-....-....---------.-....-.-....-........---------.-....-.-....--


| /  slide up
| \  slide down
| h  hammer-on
| p  pull-off
| ~  vibrato
| +  harmonic
| x  Mute note
============================================================================





Comments


Popular Scary Kids Scaring Kids tabs & chords
My Darkest Hour 1 Bass Tabs
Snake Devil Bass Tabs
Holding On Chords
Star Crossed Chords
City Sleeps In Flames Tabs
Goes Without Saying Intro Tabs
Holding On Intro 1 Tabs
Snake Devil 1 Tabs
The Only Medicine 1 Tabs
The Only Medicine 2 Tabs


Song lyrics



↑ Back to top | Tablatures and chords are parodies/interpretations of the original songs. You may use it for private study, scholarship, research or language learning purposes only
© 2014 AZChords.com Contact us | Privacy policy | DMCA | Add/correct tabs | Request tabs | Top 50 tabs