» » »

Saybia, Day After Tomorrow Tabs (ver.2)

Artists:  A B C D E F G H I J K L M N O P Q R S T U V W X Y Z # 

Day After Tomorrow Tabs (ver.2)

Saybia Tabs
 Rating:
4/5 (4 votes)
Day After Tomorrow lessons Tabs too difficult? Try these video lessons and learn fast
                -------------------------------------------------------------------------------
                      The Day After Tomorrow - Saybia
-------------------------------------------------------------------------------

Tuning: eBGDAE (Standard)

Status: Enjoy! ;-)


Intro:
e|------2---|---------|-----0-|-0--0--0--0-----------------------------------|
B|------3-3-|-----3---|-----2-|-0--0--0--0-----------------------------------|
G|------4---|-----4-4-|-----2-|-1--1--1--1-----------------------------------|
D|----4-----|---------|---2---|-2--2--2--2-----------------------------------|
A|--2-------|---2-----|-0-----|-2--2--2--2-----------------------------------|
E|----------|-3-------|-------|-0--0--0--0-----------------------------------|

e|------2---|---------|-----0-|-0--0--0--0-----------------------------------|
B|------3-3-|-----3---|-----2-|-0--0--0--0-----------------------------------|
G|------4---|-----4-4-|-----2-|-1--1--1--1-----------------------------------|
D|----4-----|---------|---2---|-2--2--2--2-----------------------------------|
A|--2-------|---2-----|-0-----|-2--2--2--2-----------------------------------|
E|----------|-3-------|-------|-0--0--0--0-----------------------------------|

e|------2---|---------|-----0-|-0--0--0--0-----------------------------------|
B|------3-3-|-----3---|-----2-|-0--0--0--0-----------------------------------|
G|------4---|-----4-4-|-----2-|-1--1--1--1-----------------------------------|
D|----4-----|---------|---2---|-2--2--2--2-----------------------------------|
A|--2-------|---2-----|-0-----|-2--2--2--2-----------------------------------|
E|----------|-3-------|-------|-0--0--0--0-----------------------------------|

e|------2---|---------|-----0-|-0--0--0--0--0--0--0--------------------------|
B|------3-3-|-----3---|-----2-|-0--0--0--0--0--0--0--------------------------|
G|------4---|-----4-4-|-----2-|-1--1--1--1--1--1--1--------------------------|
D|----4-----|---------|---2---|-2--2--2--2--2--2--2--------------------------|
A|--2-------|---2-----|-0-----|-2--2--2--2--2--2--2--------------------------|
E|----------|-3-------|-------|-0--0--0--0--0--0--0--------------------------|


(Strum every chord just about two times)

               F#m    A
Please tell me why do birds,
D                A
Sing when you're near me,
D                F#m      G     E
Sing when you're close to me
              F#m   A
They say that I'm a fool,
    D          A
For loving you deeply,
D          F#m   G    G    E   E
Loving you secretly


      Bm          G
But I crash in my mind,
    A            E
Whenever you are near
        Bm             G
Getting deaf, dumb and blind
     A              E
Just drowning in despair
     Bm             G
I am lost in you're flame
     A                E
It's burning like the sun
      Bm            G
And I call out your name
    A              E
The moment you are gone


               F#m       A
Please tell me why can't I,
D                   A
Breathe when you're near me,
D                 F#m      G    E
Breathe when your close to me
           F#m      A
I know you know I'm lost
   D          A
In loving you deeply,
D          F#m   G    G    E   E
Loving you secretly   secretly


      Bm          G
But I crash in my mind,
    A            E
Whenever you are near
        Bm             G
Getting deaf, dumb and blind
     A              E
Just drowning in despair
     Bm             G
I am lost in you're flame
     A                E
It's burning like the sun
      Bm            G
And I call out your name
    A              E
The moment you are gone


  Em                        Bm
Tomorrow, I'll say it all tomorrow
                   E          Em
Or the day after tomorrow
                       Bm
I'm sure I'll tell you then
            
Submit corrections

comments powered by Disqus
↑ Back to top | Saybia Tabs for Day After Tomorrow. Lyrics for acoustic guitar and electric guitar. Tablatures and chords are parodies/interpretations of the original songs. You may use it for private study, scholarship, research or language learning purposes only