» » »

Day After Tomorrow Bass tabs (ver.1)

Artists:  A B C D E F G H I J K L M N O P Q R S T U V W X Y Z # 

Day After Tomorrow Bass tabs (ver.1)

Saybia
Rating:
0/5 (0 votes)

Hard to play? Try these video lessons and learn fast.
                -----------------------------|
|Song: The Day After Tomorrow|
|Artist: Saybia              |
|Tab: Bass guitar            |
|Tuning: Standard, EADG      |
------------------------------

I tabbed this by hearing and assume this to be 99% correct.
Just have fun with it.
This tab takes you through the entire song.

Intro (No bass)
G|----|----|----|----|
D|----|----|----|----|
A|----|----|----|----|
E|----|----|----|----|
 |1234|1234|1234|1234|

(0:14)
G|----|-----|----|-----|----|-----|
D|----|-----|----|-----|----|-----|
A|2---|00---|2---|00---|----|-----|
E|--3-|---0-|--3-|---0-|0-0-|0x---|
 |1234|1 234|1234|1 234|1234|1 234|

(0:32) Verse 1 (...why do birds...)
G|----|-----|-----|-----|----------|-----|-----|----|
D|----|00---|00---|-----|----|00---|00---|-----|----|
A|--0-|---0-|-----|-----|--0-|---0-|-----|-----|----|
E|2---|-----|---2-|33-0-|2---|-----|---2-|3-33-|0-0-|
 |1234|1 234|1 234|1 234|1234|1 234|1 234|123 4|1234|

(1:02) Chorus (...crash in my mind...)
G|----|-----|----|-----|----|-----|----|-----|-------|----|
D|----|-----|----|-----|----|-----|----|-----|-------|----|
A|2---|00---|2---|00---|2---|00---|2---|00---|-------|----|
E|--3-|---0-|--3-|---0-|--3-|---0-|--3-|---0-|0000000|0~~~|
 |1234|1 234|1234|1 234|1234|1 234|1234|1 234|1 2 3 4|1234|

(1:34) Verse 2 (...why can't I...)
G|----|-----|-----|-----|----------|-----|------|----|
D|----|00---|00---|-----|----|00---|00---|------|----|
A|--0-|---0-|-----|-----|--0-|---0-|-----|------|----|
E|2---|-----|---2-|33-0-|2---|-----|---2-|33-33-|0-0-|
 |1234|1 234|1 234|1 234|1234|1 234|1 234|1 23 4|1234|

(2:03) Chorus (...crash in my mind...)
G|----|-----|----|-----|----|-----|----|------|----|
D|----|-----|----|-----|----|-----|----|------|----|
A|2---|00---|2---|00---|2---|00---|2---|00----|----|
E|--3-|---0-|--3-|---0-|--3-|---0-|--3-|---00-|00--|
 |1234|1 234|1234|1 234|1234|1 234|1234|1 23 4|1 2 |

(2:31) Bridge (Tomorrow, I'll say...)
G|----|------|------|------|------|------|------|----|----|
D|----|------|------|------|------|------|------|----|----|
A|----|------|---22-|22-22-|22----|------|---2~~|----|----|
E|00--|00-00-|00----|------|---00-|00-00-|00----|----|----|
 |3 4 |1 23 4|1 23 4|1 23 4|1 23 4|1 23 4|1 23 4|1234|1234|

(2:58) Guitar solo
G|------|------|------|------|------|------|------|------|
D|------|------|------|------|------|------|------|------|
A|22----|00----|22----|00----|22----|00----|22----|00----|
E|---33-|---00-|---33-|---00-|---33-|---00-|---33-|---00-|
 |1 23 4|1 23 4|1 23 4|1 23 4|1 23 4|1 23 4|1 23 4|1 23 4|

(3:24) Chorus (...crash in my mind...)
G|----|------|----|-----|-----|------|-----|----|----|
D|----|------|----|-----|-----|------|-----|----|----|
A|2---|00----|2---|00---|2----|00----|2----|0---|----|
E|--3-|---00-|--3-|---0-|--33-|---00-|--33-|--0-|0~--|
 |1234|1 23 4|1234|1 234|123 4|1 23 4|123 4|1234|1234|

Outro (No bass)
G|----|----|----|----|
D|----|----|----|----|
A|----|----|----|----|
E|----|----|----|----|
 |1234|1234|1234|1234|

Have fun and thank you!
Jeroen82
            
Hard to play? Try these video lessons and learn fast. | Correct




comments powered by Disqus
↑ Back to top | Tablatures and chords are parodies/interpretations of the original songs. You may use it for private study, scholarship, research or language learning purposes only