» » »

Saybia, I Surrender Chords (ver.1)

Artists:  A B C D E F G H I J K L M N O P Q R S T U V W X Y Z # 

I Surrender Chords (ver.1)

Saybia Tabs
 Rating:
4/5 (12 votes)
I Surrender lessons Tabs too difficult? Try these video lessons and learn fast
                Saybia - I surrender

Standard Tuning.
Capo 2nd fret.
Remember its with capo 2nd fret so of course you will have to go 2 frets up so 
when its on 10th fret its really 12th fret, but when you got your capo on its really 10th. 
Vincent Stead.

Chords :

      Am        C         G         D       
 e] --0--     --0--     --3--     --2--     
 B] --1--     --1--     --3--     --3--     
 G] --2--     --0--     --0--     --2--     
 D] --2--     --2--     --0--     --0--     
 A] --0--     --3--     --2--     -----     
 E] -----     -----     --3--     -----     


Intro:                                                                  ___
                                                                       / x8 
e]----0--0--0--0----0----0----0----0----0--0--0--0--0--0--0----0---0----0-|
B]---10-10-10--8----8----7----7----5----5--5--5--3--3--3--1----1---5----5-|
G]----9--9--9--9----9----8----8----6----6--6--6--4--4--4--2----2---6----6-| 
D]---10-10-10-10---10----9----9----7----7--7--7--5--5--5--3----3---7----7-| 
A]------------------------------------------------------------------------|
E]------------------------------------------------------------------------|

e]-0--0--0--0----0----0----0----0----0--0--0--0--0--0--0----0---0---------|
B]10-10-10--8----8----7----7----5----5--5--5--3--3--3--1----1---5---------|
G]-9--9--9--9----9----8----8----6----6--6--6--4--4--4--2----2---6---------| 
D]10-10-10-10---10----9----9----7----7--7--7--5--5--5--3----3---7---------| 
A]------------------------------------------------------------------------|
E]------------------------------------------------------------------------|

Am                                   C
   A million suns are glowing in the night
                G
Everything is quiet
                   D
Except for all the voices in my head
               Am
That say your name
                      C
Tonight I'm letting go
               G         D          D
About to give in

G    D              
   I surrender myself
Am                 C
Into the arms of a beautiful stranger
G    D                       Am   C
   I surrender myself to you - to you
G    D
   I surrender myself
Am                 C
Into the arms of a beautiful stranger
Am                          Am    C       C
   I surrender myself to you - to you


Am                                 C
  There's only one bridge left for me
                   G
My heart is almost free
                D
Beautiful by my side
                           Am
But all I think about is you
                          C
And tonight I'm letting go
                G           D           
About to give in


G    D              
   I surrender myself
Am                 C
Into the arms of a beautiful stranger
G    D                       Am    C
   I surrender myself to you  to you
G    D
   I surrender myself
Am                 C
Into the arms of a beautiful stranger
G    D                      Am     C       
   I surrender myself to you - to you    


G    D              
   I surrender myself
Am                 C
Into the arms of a beautiful stranger

G    D                     Am    C
   I surrender myself to youuuuu 

            G        D        Am         C
Who really loves me
            G        D        Am         C
You really love me
           G        D        Am         C
My beautiful stranger
            G        D        Am         C
You really love me like I love you

End:                                                                    ___
                                                                       / x8 
e]----0--0--0--0----0----0----0----0----0--0--0--0--0--0--0----0---0----0-|
B]---10-10-10--8----8----7----7----5----5--5--5--3--3--3--1----1---5----5-|
G]----9--9--9--9----9----8----8----6----6--6--6--4--4--4--2----2---6----6-| 
D]---10-10-10-10---10----9----9----7----7--7--7--5--5--5--3----3---7----7-| 
A]------------------------------------------------------------------------|
E]------------------------------------------------------------------------|

e]-0--0--0--0----0----0----0----0----0--0--0--0--0--0--0----0---0---------|
B]10-10-10--8----8----7----7----5----5--5--5--3--3--3--1----1---5---------|
G]-9--9--9--9----9----8----8----6----6--6--6--4--4--4--2----2---6---------| 
D]10-10-10-10---10----9----9----7----7--7--7--5--5--5--3----3---7---------| 
A]------------------------------------------------------------------------|
E]------------------------------------------------------------------------|
            
Submit corrections

comments powered by Disqus
↑ Back to top | Saybia Chords for I Surrender. Lyrics for acoustic guitar and electric guitar. Tablatures and chords are parodies/interpretations of the original songs. You may use it for private study, scholarship, research or language learning purposes only