» » »

Saving Abel, Beautiful You Tabs (ver.1)

Artists:  A B C D E F G H I J K L M N O P Q R S T U V W X Y Z # 

Beautiful You Tabs (ver.1)

Saving Abel Tabs
Rating:
3/5 (1 vote)
Hard to play? Try these video lessons and learn fast.
                YES!!!! Finally got the whole song, except the solo :(


e|----------------------------------|
b|----------------------------------|
g|----------------------------------|
d|-5-7\--3-0-00-----5-7\------7-----|
a|-3-5\--3-0-00-----3-5\-3-4-5-5-4-3|
d|-------3-0-00-0h3-----------------|

e|----------------------------------|
b|----------------------------------|
g|-----------------------------14h12|
d|-5-7\--3-0-00-----5-7\-3-0-0------|
a|-3-5\--3-0-00-----3-5\-3-0-0------|
d|-------3-0-00-0h3------3-0-0------|

e|----------------------------------|
b|----------------------------------|
g|----------------------------------|
d|-5-7\--3-0-00-----5-7\-3-0-0------|
a|-3-5\--3-0-00-----3-5\-3-0-0--3---|
d|-------3-0-00-0h3------3-0-0------|

    CLEAN
e|-----------|
b|-----------|
g|--77--777--|    <-x4
d|-----------|    
a|-----------|
d|-0---0-----|


 THEN DISTORTION
e|-----------|
b|-----------|
g|-10-8-10h8-|     <-x9
d|-----------|
a|-----------|
d|-----------|

e|-----------------------------------|
b|-----------------------------------|
g|--------------77-55-55-------------|
d|-----------0--88-77-55-------------|    <-I think 
a|-Pickslide-0--55-33-33-------------|
d|-Pickslide-0-----------------------|

e|----------------|
b|----------------|
g|----------------|
d|-----7----------|
a|-3-5--5-3-0-----|
d|-----------6-5-3|

e|-------------------------------|
b|-------------------------------|
g|--------------------------14h12|
d|-5-7\--3-0-00-----5-7\-3-0-----|
a|-3-5\--3-0-00-----3-5\-3-0-----|
d|-------3-0-00-0h3------3-0-----|

e|----------------------------------|
b|----------------------------------|
g|----------------------------------|
d|-5-7\--3-0-00-----5-7\------7-----|
a|-3-5\--3-0-00-----3-5\-3-4-5-5-4-3|
d|-------3-0-00-0h3-----------------|

e|-------------------------------|
b|-------------------------------|
g|--------------------------14h12|
d|-5-7\--3-0-00-----5-7\-3-0-----|
a|-3-5\--3-0-00-----3-5\-3-0-----|
d|-------3-0-00-0h3------3-0-----|

e|-------------------------------|
b|-------------------------------|
g|-------------------------------|
d|-5-7\--3-0-00-----5-7\--3-0-0--|
a|-3-5\--3-0-00-----3-5\--3-0-0-3|
d|-------3-0-00-0h3-------3-0-0--|

then the clean part again but this. lightly palm mute
e|--------------------------|
b|--------------------------|
g|--------------------------|   <-x8
d|--------------------------|
a|--------------------------|
d|-3-0-0-0-0-3-0-0-0-0-6-5-3|

e|-----------------------------------|
b|-----------------------------------|
g|--------------77-55-55-------------|
d|-----------0--88-77-55-------------|     
a|-Pickslide-0--55-33-33-------------|
d|-Pickslide-0-----------------------|

   guitar 1
e|----------------|
b|----------------|
g|----------------|  <-x2
d|-----7----------|
a|-3-5--5-3-0-----|
d|-----------6-5-3|

  guitar 2
e|----------------------|
b|----------------------|
g|----*7---*7----*7--*7b|
d|-*77--*77---*77--*7---|
a|----------------------|
d|----------------------|

e|-------------------------------|
b|-------------------------------|
g|--------------------------14h12|
d|-5-7\--3-0-00-----5-7\-3-0-----|
a|-3-5\--3-0-00-----3-5\-3-0-----|
d|-------3-0-00-0h3------3-0-----|

e|----------------------------------|
b|----------------------------------|
g|----------------------------------|
d|-5-7\--3-0-00-----5-7\------7-----|
a|-3-5\--3-0-00-----3-5\-3-4-5-5-4-3|
d|-------3-0-00-0h3-----------------|

e|-------------------------------|
b|-------------------------------|
g|--------------------------14h12|
d|-5-7\--3-0-00-----5-7\-3-0-----|
a|-3-5\--3-0-00-----3-5\-3-0-----|
d|-------3-0-00-0h3------3-0-----|

e|-------------------------------|
b|-------------------------------|
g|-------------------------------|
d|-5-7\--3-0-00-----5-7\--3-0-0--|
a|-3-5\--3-0-00-----3-5\--3-0-0--|
d|-------3-0-00-0h3-------3-0-0--|

e|------------------------|
b|------------------------|
g|------------------------|
d|-3-3---3-3---5-5---5-5--|
a|-3-3-5-3-3-5-5-5-4-5-5-4|
d|-3-3---3-3---5-5---5-5--|

e|-------------|
b|-------------|
g|-7-----------|
d|-7-7-5--5-3-0| <-x2    don't know the solo yet sorry. :(
a|-5-7-5--5-3-0|
d|---7-5--5-3-0|

e|--------|
b|--------|
g|-5-5--77|
d|-5-5--77|      <-this is what you play through through the solo
a|-3-3--55|
d|--------|

e|-------------------------------|
b|-------------------------------|
g|--------------------------14h12|
d|-5-7\--3-0-00-----5-7\-3-0-----|
a|-3-5\--3-0-00-----3-5\-3-0-----|
d|-------3-0-00-0h3------3-0-----|

e|-----------------------------|
b|-----------------------------|
g|------------------------8-10b|
d|-5-7\--3-0-00-----5-7\-------|
a|-3-5\--3-0-00-----3-5\-------|
d|-------3-0-00-0h3------------|

e|-------------------------------|
b|-------------------------------|
g|--------------------------14h12|
d|-5-7\--3-0-00-----5-7\-3-0-----|
a|-3-5\--3-0-00-----3-5\-3-0-----|
d|-------3-0-00-0h3------3-0-----|

e|-------------------------------|
b|-------------------------------|
g|--------------------------14h12|
d|-5-7\--3-0-00-----5-7\-3-0-----|
a|-3-5\--3-0-00-----3-5\-3-0-----|
d|-------3-0-00-0h3------3-0-----|


i think you have to use whammy or wah-wah effect on the 0's in the end
e|----------------------|
b|----------------------|
g|----------------------|
d|-5-7\--3-0-0-0-0-0-0-0|
a|-3-5\--3-0-0-0-0-0-0-0|
d|-------3-0-0-0-0-0-0-0|

And that's the end :)
            

comments powered by Disqus
↑ Back to top | Saving Abel Tabs for Beautiful You. Lyrics for acoustic guitar and electric guitar. Tablatures and chords are parodies/interpretations of the original songs. You may use it for private study, scholarship, research or language learning purposes only