» » »

Shoulder To The Wheel Tabs (ver.3)

Artists:  A B C D E F G H I J K L M N O P Q R S T U V W X Y Z # 

Shoulder To The Wheel Tabs (ver.3)

Saves The Day
Rating:
0/5 (0 votes)

Hard to play? Try these video lessons and learn fast.
                Saves The Day
"Shoulder To The Wheel"

Intro
e:--0-0-0-0-0-0-0-0-0-0-0-0--------------------------------------
B:--4h5-4h5-4h5-4h5-4h5-4h5--------------------------------------
G:---------------------------------------------------------------
D:---------------------------------------------------------------
A:---------------------------------------------------------------
E:---------------------------------------------------------------
Intro (cont'd)            Lead Riff            At the end...
e:-----------------------------------------------0-0------------
B:-----------------------------------------------4h5-------------
G:-------------------------8h9----------------------------------
D:----2--------------------8h9-----------------------------------
A:-2--0--------------------6h7----------------------------------
E:-0------------------------------------------------------------

First Part Of The Verse
e:---------------------------------------------------------------
B:---------------------------------------------------------------
G:--------2-------------------------------------------------------
D:--2--4--2---------------------------------------------------------
A:--2--4--0---------------------------------------------------------
E:--0--2-----------------------------------------------------------

Second Part of the Verse
e:---------------------------------------------------------------
B:---------------------------------------------------------------
G:--9--4------4--------------------------------------------------
D:--9--4--------4------------------------------------------------
A:--7--2--2-2-----------------------------------------------------
E:---------------------------------------------------------------

Chorus                                 Lead
e:---------------------------------------------------------------
B:---------------------------------------5------------------------
G:-----------------6-4---------------------4-2-1-2--------------
D:--2--2-4--4-2--2-6-4-2----------------------------------------
A:--2--2-4--4-0--0-4-2-2-----------------------------------------
E:--0--0-2--2----------0----------------------------------------

The Breakdown Is Just E.
            
Hard to play? Try these video lessons and learn fast. | Correct




comments powered by Disqus
↑ Back to top | Tablatures and chords are parodies/interpretations of the original songs. You may use it for private study, scholarship, research or language learning purposes only