» » »

Saves The Day, Obsolete Bass tabs (ver.1)

Artists:  A B C D E F G H I J K L M N O P Q R S T U V W X Y Z # 

Obsolete Bass tabs (ver.1)

Saves The Day Tabs
 Rating:
4/5 (4 votes)
Obsolete lessons Tabs too difficult? Try these video lessons and learn fast
1
                Great song, one of Save The Day's best. 

Intro (x3) 
G|-----------1-1--1------------4---------4--------------------------------------| 
D|-----1-2-1--------1-1--1-2-2---2-2-2-2---2-2----------------------------------| 
A|-2-2-----------------------------------------------TO-INTRO-ENDING------------| 
E|------------------------------------------------------------------------------| 

Intro First Ending 
G|-4-4-3-3-3-1-1-------4-4-3-3-3------------------------------------------------| 
D|---------------4-4-4-----------4-4-2-2-2--------------------------------------| 
A|------------------------------------------------------------------------------| 
E|------------------------------------------------------------------------------| 

Intro Second and Third Ending 
G|------------------------------------------------------------------------------| 
D|------------------------------------------------------------------------------| 
A|-2-2-1-1-1-----------2-2-1-1-1------------------------------------------------| 
E|-----------4-4-2-2-2-----------2-2-0-0-0--------------------------------------| 

Verse 
G|------------------------------------------------------------------------------| 
D|-----1-1-1-2-2-4-4-4-------------------1-1-1-1-1-------1-1--22-2-2-2-222-2-2--| 
A|-4-4------------------22-2-2-2-222-2-2---------------4------------------------| 
E|-------------------------------------------------4-4--------------------------| 

G|------------------------------------------------------------------------------| 
D|-----1-1-1-2-2-4-4-4-------------------1-1-1-1-1-------1-1--2---2-------------| 
A|-4-4------------------22-2-2-2-222-2-2---------------4--------2---------------| 
E|-------------------------------------------------4-4--------------------------| 

G|------------------------------------------------------------------------------| 
D|--------------------------------------------------------------1-1-22-2-2-2----| 
A|-22-2-2-2-222-2-2--------------------44-4-4-4-444-4-4-------------------------| 
E|-------------------22-2-2-2-222-2-2--------------------4-4-4------------------| 

G|-------------------------------------------------------1-1-1------------------| 
D|--------------------------------------------------------------1-1-22-2-2-2----| 
A|-22-2-2-2-222-2-2--------------------44-4-4-4-444-4-4-------------------------| 
E|-------------------22-2-2-2-222-2-2-------------------------------------------| 

G|------------------------------------------------------------------------------| 
D|------------------------------------------------------1-1-2-2-2-2-2-1-1-1-1-1-| 
A|-22-2-2-2-222-2-2--------------------44-4-4-4-444-4-4-------------------------| 
E|-------------------22-2-2-2-222-2-2-------------------------------------------| 

G|------------------------------------------------------------------------------| 
D|---------------------------------------------------1-1-2-2-2-2-2-1-1-1-1-1----| 
A|-2222222222222222------------------444444444444444-------------------------2--| 
E|------------------2222222222222222--------------------------------------------| 

Bridge - Guitar Only 

Listen for where to come back in 
G|------------------------------------------------------------------------------| 
D|------------------------------------------------------------------------------| 
A|-9\2-2222222222222222---------------------------------------------------------| 
E|-----------------------2222222222222222---000000000000000---------------------| 

G|------------------------------------------------------------------------------| 
D|-------------------44-4-4-4-444-4-4--22-2-2-2-222-2-2--22-1-1-1---------------| 
A|-22-2-2-2-222-2-2-----------------------------------------------44-4-4-4------| 
E|------------------------------------------------------------------------------| 

G|------------------------------------------------------------------------------| 
D|-------------------44-4-4-4-444-4-4--22-2-2-2-222-2-2--22-1-1-1---------------| 
A|-22-2-2-2-222-2-2-----------------------------------------------44-4-4-4-2-2--| 
E|------------------------------------------------------------------------------|
            
Submit corrections

comments powered by Disqus
↑ Back to top | Saves The Day Bass for Obsolete. Lyrics for acoustic guitar and electric guitar. 1 Tablatures and chords are parodies/interpretations of the original songs. You may use it for private study, scholarship, research or language learning purposes only