» » »

Saves The Day, Holly Hox Tabs (ver.2)

Artists:  A B C D E F G H I J K L M N O P Q R S T U V W X Y Z # 

Holly Hox Tabs (ver.2)

Saves The Day Tabs
Rating:
0/5 (0 votes)
Holly Hox lessons Tabs too difficult? Try these video lessons and learn fast
                Intro 
e|--0------0------------------| 
B|--0------0------------------| 
G|--0------0------------------| 
D|--0--------------~~~~~~~----| 
A|--0--------------~~~~~~~----| 
E|--0--------------~~~~~~~----| 
                 ^pickscr*pe^
e|-----------------------------------------------------------------| 
B|-----------------------------------------------------------------| 
G|--11-11-11-11-11-11-11-11--9-9-9-9-9-9-9-9--8-8-8-8-8-8-8-8-6-4--| 
D|-----------------------------------------------------------------| 
A|---9--9--9--9--9--9--9—9---7-7-7-7-7-7-7-7--6-6-6-6-6-6-6-6-4-2--| 
E|-----------------------------------------------------------------| 

e|-------------------------------------------------------------| 
B|-------------------------------------------------------------| 
G|--11-11-11-11-11-11-11-11--9-9-9-9-9-9-9-9--8-8-8-8-8-8-9-8--| 
D|-------------------------------------------------------------| 
A|---9--9--9--9--9--9--9—-9--7-7-7-7-7-7-7-7--6-6-6-6-6-6-7-6--| 
E|-------------------------------------------------------------| 

e|----------------------------------------------| 
B|----------------------------------------------| 
G|--11-11-11—-13-11--9-9-9-11-9--8-8-8-8-8-6-4--| 
D|----------------------------------------------| 
A|---9—-9—-9—-11--9--7-7-7—-9-7--6-6-6-6-6-4-2--| 
E|----------------------------------------------| 

e|---------------------------------------| 
B|---------------------------------------| 
G|--11-11-11-13-11--9-9-9-11--9—9-8------| 
D|---------------------------------------| 
A|---9--9—-9-11--9--7-7-7--9--7—7-6------| 
E|---------------------------------------| 
                               ..Bend string…
   Starts singing
e|---------------------------------| 
B|---------------------------------| 
G|---------------------------------| 3X
D|--4-4-4--6-6-6-6--9-9-9-9-9-9-9--| 
A|--2-2-2--4-4-4-4--7-7-7-7-7-7-7--| 
E|---------------------------------| 


e|---------------------------------|  
B|---------------------------------| 
G|---------------------------------| 
D|--4-4-4--6-6-6-6-----------------| 
A|--2-2-2--4-4-4-4--2-2-2-2-2-2-2--| 
E|------------------0-0-0-0-0-0-0--| 

     chorus
e|-----------------------------------------------------------| 
B|-----------------------------------------------------------| 
G|-----------------------------------------------------------| 
D|-----------------------------------------------------------| P.M.  2X
A|--6-6-6-6-6-6-6-6--2-2-2-2-2-2-2-2--4-4-4-4-4-4-4-4--2>>>--| 
E|--4-4-4-4-4-4-4-4--0-0-0-0-0-0-0-0--2-2-2-2-2-2-2-2--0>>>--| 

  


 Verse 2
e|---------------------------------| 
B|---------------------------------| 
G|---------------------------------|twice 
D|--4-4-4--6-6-6-6--9-9-9-9-9-9-9--| 
A|--2-2-2--4-4-4-4--7-7-7-7-7-7-7--| 
E|---------------------------------| 
 
 
e|-----------------| 
B|-----------------| 
G|-----------------|x2 
D|---4-----6-------| 
A|---2--4--4----2--| 
E|------2-------0--| 

e|----------------------------------------|
B|----------------------------------------|
G|--4-4-x-x-4-4-x-x-4-4-x-x-4-4-x-x-4-4---|
D|----------------------------------------|
A|--2-2-x-x-2-2-x-x-2-2-x-x-2-2-x-x-2-2---|
E|----------------------------------------|

Chorus 
e|----------------------------------------------------------------------| 
B|----------------------------------------------------------------------| 
G|----------------------------------------------------------------------| 
D|----------------------------------------------------------------------| 
A|--6-6-6-6-6-6-6-6--2-2-2-2-2-2-2-2--4-4-4-4-4-4-4-4--2-2-2-2-2-2-2-2--| 
E|--4-4-4-4-4-4-4-4--0-0-0-0-0-0-0-0--2-2-2-2-2-2-2-2--0-0-0-0-0-0-0-0--| 
           


Bridge 

e|-------------------------- 
B|-------------------------- 
G|-------------------------- 
D|--4-4-----6-6-6----------- 
A|--2-2--4--4-4-4--4-4-2-2-- 
E|-------2---------2-2-0-0-- 


Or you could play this :
e|----------------------------------------|
B|----------------------------------------|(guitar 1)
G|--4-4-x-x-4-4-x-x-4-4-x-x-4-4-x-x-4-4---|
D|----------------------------------------|
A|--2-2-x-x-2-2-x-x-2-2-x-x-2-2-x-x-2-2---|
E|----------------------------------------|
                                        
e|-------------------------- 
B|-------------------------- 
G|-------------------------- 
D|--4-4-----6-6-6----------- (giutar 2)
A|--2-2--4--4-4-4--4-4-2-2-- 
E|-------2---------2-2-0-0-- 


this is a great song by std, i tabbed it in order if you
            
Submit corrections

comments powered by Disqus
↑ Back to top | Saves The Day Tabs for Holly Hox. Lyrics for acoustic guitar and electric guitar. Tablatures and chords are parodies/interpretations of the original songs. You may use it for private study, scholarship, research or language learning purposes only