>
 >
Daybreak

Daybreak Guitar Tabs

Saves The Day - Daybreak chords, tabs, tablatures, lyrics

Guitar lessons | Add/correct | Request | Top 50 tabs Artists:  A B C D E F G H I J K L M N O P Q R S T U V W X Y Z 0-9

Daybreak Guitar Tabs – Saves The Day

CD, Sheet music, Poster

Do you like Daybreak? Share with your friends now
TabsTabs v2
			     DAYBREAK (Live) - Saves the Day

Tuning: Half-Step Down (Capo: 2nd fret)

e|---------------------------------------------------------------------------|
B|-----------------------------------------------------------------0---------|
G|---------4-4-----2-0-------4-4-----2-0-------4-4-------2-0-----3-----2-0---|
D|---------------------------------------------------------------------------| x5
A|---------------------------------------------------------------------------|
E|-----3-3-------3-------3-3-------3-------0-0-------0-------0-0-------------|

e|---------------------------------------------------------------------------|
B|---------0-0-----0-0-------0-0-----0-0---------0-------0-0-----0-0---0-0---|
G|---------4-4-----2-0-------4-4-----2-0-------3---------2-0-----4-4---2-0---|
D|---------------------------------------------------------------------------| x2
A|---------------------------------------------------------------------------|
E|-----3-3-------3-------3-3-------3-------0-0-------0-------0-0-------------|

e|---------------------------------------------------------------------------|
B|---------0-----------------------------------------------------------------|
G|--------0------------------------------------------------------------------|
D|-------0-------------------------------------------------------------------| x1
A|------x--------------------------------------------------------------------|
E|-----3---------------------------------------------------------------------|

e|---------------------------------------------------------------------------|
B|---------------------------------------------------------------------------|
G|----------------x5-x-5x2-x-2x----------------------------------------------|
D|-----2-x-2x2-x-2x5-x-5x2-x-2x----------------------------------------------| x4
A|-----2-x-2x2-x-2x3-x-3x0-x-0x----------------------------------------------|
E|-----0-x-0x0-x-0-----------------------------------------------------------|

(Listen to song for strumming pattern)
e|-----0-------0---0---0-----------------------------------------------------|
B|-----0-------1---1---0-----------------------------------------------------|
G|-----0-------0---2---0-----------7/9-9999-7/9-9999-------------------------|
D|-----2-------2---2---2---(6\5)---------------------------------------------| x1
A|-----2-------3---0---2-----------5/7-7777-5/7-7777-------------------------|
E|-----0---------------0-----------------------------------------------------|

(Listen to song for strumming pattern)
e|-----0---3---0---0---------------------------------------------------------|
B|-----0---3---1---0---------------------------------------------------------|
G|-----0---0---0---0---7/9-9999-7/9-9999-------------------------------------|
D|-----2---0---2---2---------------------------------------------------------|x2
A|-----2---2---3---2---5/7-7777-5/7-7777-------------------------------------|
E|-----0---3-------0---------------------------------------------------------|

e|---------------\-----------------------------------------------------------|
B|---------------\-----------------------------------------------------------|
G|---------------\-----------------------------------------------------------|
D|-----2-x-2x2---\--pick-slide-----------------------------------------------|x1
A|-----2-x-2x2---\-----------------------------------------------------------|
E|-----0-x-0x0---\-----------------------------------------------------------|

e|---------------------------------------------------------------------------|
B|---------------------------------------------------------------------------|
G|----------------x5-x-5x2-x-2x----------------------------------------------|
D|-----2-x-2x2-x-2x5-x-5x2-x-2x----------------------------------------------| x2
A|-----2-x-2x2-x-2x3-x-3x0-x-0x----------------------------------------------|
E|-----0-x-0x0-x-0-----------------------------------------------------------|

(Listen to song for strumming pattern)
e|-----0-------0---0---0-----------------------------------------------------|
B|-----0-------1---1---0-----------------------------------------------------|
G|-----0-------0---2---0-----------7/9-9999-7/9-9999-------------------------|
D|-----2-------2---2---2---(6\5)---------------------------------------------| x1
A|-----2-------3---0---2-----------------------------------------------------|
E|-----0---------------0-----------------------------------------------------|

(Listen to song for strumming pattern)
e|-----0---3---0---0---------------------------------------------------------|
B|-----0---3---1---0---------------------------------------------------------|
G|-----0---0---0---0---7/9-9999-7/9-9999-------------------------------------|
D|-----2---0---2---2---------------------------------------------------------|x2
A|-----2---2---3---2---5/7-7777-5/7-7777-------------------------------------|
E|-----0---3-------0---------------------------------------------------------|

(Listen to song for strumming pattern)
e|-----0---3---0-------------------------------------------------------------|
B|-----1---3---3------3------------------------------------------------------|
G|-----0---0---2------0------------------------------------------------------|
D|-----2---0---0-x3---0---4--------------------------------------------------|
A|-----3---2---0------2---5--------------------------------------------------|
E|---------3----------3---2--------------------------------------------------|

(Listen to song for strumming pattern)
e|-----0---3---0---0--------------------------0---3---0---0------------------|
B|-----0---3---1---0--------------------------0---3---1---0------------------|
G|-----0---0---0---0---7/9-9999-7/9-9999------0---0---0---0------------------|
D|-----2---0---2---2---------------------x3---2---0---2---2------------------|
A|-----2---2---3---2---5/7-7777-5/7-7777------2---2---3---2------------------|
E|-----0---3-------0--------------------------0---3-------0------------------|

| /  slide up
| \  slide down
| h  hammer-on
| p  pull-off
| ~  vibrato
| +  harmonic
| x  Mute note





Comments


Popular Saves The Day tabs & chords
My Sweet Fracture Intro Bass Tabs
Radio Chords
As Your Ghost Takes Flight Tabs
Driving In The Dark Tabs
Freakish 2 Tabs
Get Fucked Up Tabs
Hold 3 Tabs
Nightengale 2 Tabs
Rise Tabs
Just Walk Him Out There And Shoot Him Ukulele


Song lyrics



↑ Back to top | Tablatures and chords are parodies/interpretations of the original songs. You may use it for private study, scholarship, research or language learning purposes only
© 2014 AZChords.com Contact us | Privacy policy | DMCA | Add/correct tabs | Request tabs | Top 50 tabs