» » »

Saves The Day, At Your Funeral Tabs (ver.1)

Artists:  A B C D E F G H I J K L M N O P Q R S T U V W X Y Z # 

At Your Funeral Tabs (ver.1)

Saves The Day Tabs
 Rating:
4/5 (35 votes)
At Your Funeral lessons Tabs too difficult? Try these video lessons and learn fast
                



  This song will become   the anthem of     your  underground
 .   .   .  .      .   .   .   .     .   .   .   .     .   .   .   .
-----------------|-----------------|-----------------|-----------------
-3---------------|-2---------------|-----------------|-----------------
-----------------|-----------------|-----0-----------|-----------------
-----------------|-----------------|-----------------|-----4-----------
-----------------|-----------------|-----------------|-----------------
-----------------|-----------------|-0---------------|-3---------------

   Your two floors down      getting high in the back  room
 .   .   .   .     .   .   .   .     .   .   .   .     .   .   .   .   
-----------------|-----------------|-------------2---|-----------------
-3---------------|-2---------------|---------3-------|-----------------
-----------------|-----------------|-----0-----------|---------0---2---
-----------------|-----------------|-----------------|-----4-----------
-----------------|-----------------|-----------------|-----------------
-----------------|-----------------|-0---------------|-3---------------

  If I flooded out your house do you think you'd make it out    or would you
 .   .   .   .     .   .   .   .     .   .   .   .     .   .   .   .   
-----------------|-----------------|-------------2---|-----------------
-3---------------|-2---------------|---------3-------|-----------------
-2---------------|-2---------------|-----0-----------|---------0---2---
-0---------------|-2---------------|-----------------|-----4-----------
-0---------------|-0---------------|-----------------|-----------------
-----------------|-----------------|-0---------------|-3---------------


 burn up before the water filled your lungs
 .   .   .   .     .   .   .   .     .   .   .   .     .   .   .   .   
-----------------|-----------------|-----------------|-----------------
-2---------------|-0---------------|-3---------------|-2---------------
-2---------------|-0---------------|-4---------------|-2---------------
-2---------------|-2---------------|-4---------------|-2---------------
-0---------------|-2---------------|-2---------------|-0---------------
-----------------|-0---------------|-----------------|-----------------


     And at the funeral       I will sing      the     requiem
 .   .   .   .     .   .   .   .     .   .   .   .     .   .   .   .   
-----------------|-----------------|-3---------------|-2-------0-------
-3-------3-------|-2---------------|-3---------------|-3-------2-------
-0-------2-------|-2---------------|-0---------------|-2-------2-------
-0-------0-------|-2---------------|-0---------------|-0-------2-------
-2-------0-------|-0---------------|-2---------------|-0-------0-------
-3---------------|-----------------|-3---------------|-----------------


**Double Time**

                                  This song will become               the anthem     of     
                                 Your two floors down                     getting 
                                 If I flooded out your house             do      you
       .   .   .   .     .   .   .   .     .   .   .   .     .   .   .   .   
-2-|---2---2-2-2---2-|---2---2-2-2---0-|---0---0---0---0-|---0---0---0---3-
-3-|---3---3-3-3---3-|---3---3-3-3---2-|---2---2---2---3-|---2---0---2---3-
-2-|---2---2-2-2---2-|---2---2-2-2---2-|---2---2---2---2-|---2---2---2---0-
-0-|---0---0-0-0---0-|---0---0-0-0---2-|---2---2---2---2-|---2---2---2---2-
---|-----------------|-----------------|-----------------|---------------2-
---|-----------------|-----------------|-----------------|---------------0-


     your            under             ground
 high in the back  room
 think    you'd    make     it       out                   or would you
 .   .   .   .     .   .   .   .     .   .   .   .     .   .   .     
---3---3-3-3---3-|---3---3-3-3---3-|---3---3-3-3---3-|---3---3-3-3-
---3---3-3-3---3-|---3---3-3-3---3-|---3---3-3-3---3-|---3---3-3-3- 
---0---0-0-0---0-|---0---0-0-0---0-|---0---0-0-0---0-|---0---0-0-0-  Repeat Section
---2---2-2-2---2-|---2---2-2-2---0-|---0---0-0-0---0-|---0---0-0-0-  (3 Times)
---2---2-2-2---2-|---2---2-2-2---2-|---2---2-2-2---2-|---2---2-2-2-
---0---0-0-0---0-|---0---0-0-0---3-|---3---3-3-3---3-|---3---3-3-3-

 burn  out   before        the       water        fills      your 
 .   .   .   .     .   .   .   .     .   .   .   .     .   .   .   .   
-0-----0-----0---|-0-------0-------|---0-------------|-----------------
-2-----0-----2   / 3-------2-------|---0-------------|-----------------
-2-----2-----2---|-2-------2-------|---0-------------|-----------------
-2-----2-----2---|-2-------2-------|---2-------------|-----------------
-0-----0-----0---|-0-------0-----2-|---2-------------|-----------------
-----------------|---------------0-|---0-------------|-----------------


 lungs
 .   .   .   .     .   .   .   .     .   .   .   .     .   .   .   .   
-7---7---7-7-7-7-|---7-7---7-7-7---|-5---5---5-5-5-5-|---5-5---5-5-5---
-7---7---7-7-7-7-|---7-7---7-7-7---|-5---5---5-5-5-5-|---5-5---5-5-5---
-7---7---7-7-7-7-|---7-7---7-7-7---|-6---6---6-6-6-6-|---6-6---6-6-6---
-9---9---9-9-9-9-|---9-9---9-9-9---|-7---7---7-7-7-7-|---7-7---7-7-7---
-9---9---9-9-9-9-|---9-9---9-9-9---|-7---7---7-7-7-7-|---7-7---7-7-7---
-7---7---7-7-7-7-|---7-7---7-7-7---|-5---5---5-5-5-5-|---5-5---5-5-5---


<<* CHORUS *>>

Chords: G, D, A

And at your funeral I will sing the requiem.
I'd offer you my hand but it would hurt too much to watch you die.


Second Verse Lyrics:

And you can bet when we mourn the death of you that night 
that they'll lay me on the dinner table and I will be the pig 
with the apple in my mouth, the food that celebrates your end.
            
Submit corrections

comments powered by Disqus
↑ Back to top | Saves The Day Tabs for At Your Funeral. Lyrics for acoustic guitar and electric guitar. Tablatures and chords are parodies/interpretations of the original songs. You may use it for private study, scholarship, research or language learning purposes only