» » »

Saves The Day, As Your Ghost Takes Flight Tabs (ver.2)

Artists:  A B C D E F G H I J K L M N O P Q R S T U V W X Y Z # 

As Your Ghost Takes Flight Tabs (ver.2)

Saves The Day Tabs
Rating:
0/5 (0 votes)
Hard to play? Try these video lessons and learn fast.
                Saves The Day - "As Your Ghost Takes Flight"

Verse  
e|---------------------------------------------------------------------------|
B|---------------------------------------------------------------------------|
G|---------------------------------------------------------------------------|
D|--6-6---1---4---2-2---1-2-----4-4--1---2---2-2---1-7-4---------------------|
A|--6-6-----2-----2-2-------4---4-4----4-----2-2-----------------------------|
E|--4-4-----------0-0-----------2-2----------0-0-----------------------------|

e|---------------------------------------------------------------------------|
B|---------------------------------------------------------------------------|
G|---------------------------------------------------------------------------|
D|--6-6--x-x---1---4---2-2--x-x---1-2-----4-4--x-x---1-------2-2/33/55-------|
A|--6-6--x-x-----2-----2-2--x-x-------4---4-4--x-x-----4-2---2-2/33/55-------|
E|--4-4--x-x-----------0-0--x-x-----------2-2--x-x-----------0-0/11/33-------|
							     
Chorus
e|---------------------------------------------------------------------------|
B|---------------------------------------------------------------------------|
G|--------------------4-4-4-4-4-4-4-4----------------------------------------|
D|--6-6-6-6----0-0----4-4-4-4-4-4-4-4----------------------------------------|
A|--6-6-6-6----0-0----2-2-2-2-2-2-2-2----------------------------------------|
E|--4-4-4-4----2-2-----------------------------------------------------------|

Bridge
e|---------------------------------------------------5^-0^----0^-------------|
B|---------------------------------------------------------0^----------4^-0^-|
G|-------------------------------------------------2^---------------2^-------|
D|--6-6~--2-2~---6-6~--2-2~---6-6~--2-2~---6~---4^---------------4^----------|
A|--6-6~--2-2~---6-6~--2-2~---6-6~--2-2~---6~--------------------------------|
E|--4-4~--0-0~---4-4~--0-0~---4-4~--0-0~---4~--------------------------------|

End Bridge
e|---------------------------------------------------------------------------|
B|---------------------------------------------------------------------------|
G|---------------------------------------------------------------------------|
D|--4/6----6-6-6-6-6-6--2-2-2-2-2-2--4-4-4-4-4-4--2-2-2-2-2-2----------------|
A|--4/6----6-6-6-6-6-6--2-2-2-2-2-2--4-4-4-4-4-4--2-2-2-2-2-2----------------|
E|--2/4----4-4-4-4-4-6--0-0-0-0-0-0--2-2-2-2-2-2--0-0-0-0-0-0----------------|
            

comments powered by Disqus
↑ Back to top | Saves The Day Tabs for As Your Ghost Takes Flight. Lyrics for acoustic guitar and electric guitar. Tablatures and chords are parodies/interpretations of the original songs. You may use it for private study, scholarship, research or language learning purposes only