» » »

Save Ferris, Come On Eileen Bass tabs (ver.3)

Artists:  A B C D E F G H I J K L M N O P Q R S T U V W X Y Z # 

Come On Eileen Bass tabs (ver.3)

Save Ferris Tabs
 Rating:
4/5 (4 votes)
Come On Eileen lessons Tabs too difficult? Try these video lessons and learn fast
1
                Save Ferris
come on eileen
Standard tuning

Intro
G|---------|---------|---------|---------|
D|---------|---------|---------|---------|
A|-3-------|---------|---------|---------|
E|---------|-0~------|-1~------|---------|

G|-3333-----|
D|-----3333-|
A|----------|
E|----------|


G|-33333333----------------3333-----|
D|---------0000000011111111----3333-|
A|----------------------------------|
E|----------------------------------|

verse


G|-----------------------------------------|
D|--252--252-------------------------------|
A|-3----3------2----2---030--012-3-----252-|
E|----------03-30-03-0-1----1-----012-3----|


pre chorus
G|-----------|
D|-----------|
A|-----------|
E|-33-333-33-|


chorus
G|-----------------|----------------|--------2-------|-----------------|
D|-----------------|----------------|-2----2-------2-|---------------2-|
A|-5-----5-7-----5-|--------2-------|--2-5-----2-5---|-----2-5-----4---|
E|---5-7-----5-7---|5-0-2-5---0-2-5-|----------------|-3-3-----5-5-----|


bridge
G|-----------------|-------3---------|-----------------|-----------------|
D|-----------------|---4-6---6-------|-----------------|-------5-6-5-6-8-|
A|-6---------3-4-5-|-6---------3-4-5-|-----5-----5-6-7-|-8-7-8-----------|
E|---2-4-6-4-------|-----------------|-6-8---6-8-------|-----------------|


ending
G|---------|---------|---------|---------|
D|---------|---------|---------|---------|
A|-4-------|---------|-6-------|---------|
E|---------|-4-------|---------|-2-2-4-4-|

G|---------|---------|---------|---------|
D|---------|---------|---------|---------|
A|-4-4-4-4-|---------|-6-6-6-6-|---------|
E|---------|-4-4-4-4-|---------|-2-2-4-4-|

last time
G|---------|---------|---------|---------|
D|---------|---------|---------|---------|
A|-4-4-4-4-|---------|-6-------|---------|
E|---------|-4-4-4-4-|---------|-2---4---|

it's my first tab so please dont be too hard on me.
            
Submit corrections

comments powered by Disqus
↑ Back to top | Save Ferris Bass for Come On Eileen. Lyrics for acoustic guitar and electric guitar. 1 Tablatures and chords are parodies/interpretations of the original songs. You may use it for private study, scholarship, research or language learning purposes only