>
 >
Come On Eileen

Come On Eileen Guitar Tabs

Save Ferris - Come On Eileen chords, tabs, tablatures, lyrics

Guitar lessons | Add/correct | Request | Top 50 tabs Artists:  A B C D E F G H I J K L M N O P Q R S T U V W X Y Z 0-9

Come On Eileen Guitar Tabs – Save Ferris

CD, Sheet music, Poster

Do you like Come On Eileen? Share with your friends now
Bass TabsBass Tabs v2Bass Tabs v3ChordsTabsTabs v2Ukulele

COME ON EILEEN
As recorded by Save Ferris
(From the 1997 Album IT MEANS EVERYTHING)

        

Words by Dexy's Midnight Riders Music by Save Ferris

G#sus4
x x x x 9 9

Gtr I (E A D G B E) - 'clean'
Gtr II (E A D G B E) - 'distortion'
Gtr III (E A D G B E) - 'horn'

 Intro
  H=110
  N.C.
 4/4
  Gtr III
  q  q  q  E E   E E q  q  Q    q  q  q  E E   E E q  q  Q
|--------------|--------------|--------------|---------------|
|--------------|--------------|--------------|---------------|
|--------------|--------------|--------------|---------------|
|-4--6--4--6-4-|---4-6--4--6--|-4--6--4--6-4-|---4-6--4--6---|
|--------------|--------------|--------------|---------------|
|--------------|--------------|--------------|---------------|


                                 B5                F#5
  q  q  q  E E   E E q  q  E E   E E E E Q   E E   E E E E Q   Q
|--------------|---------------|-----------------|-----------------|
|--------------|---------------|-----------------|-----------------|
|--------------|---------------|-----------------|-----------------|
|-4--6--4--6-4-|---4-6--4------|-4-4---4-4-------|-4-4---4-4-------|
|--------------|-----------6-7-|-------------6-7-|-------------6---|
|--------------|---------------|-----------------|-----------------|
|
| Gtr II
|                                PM------------|
| W              W               E E E E E E E E   E E E E E E E E
|--------------|---------------|-----------------|-----------------|
|--------------|---------------|-----------------|-----------------|
|--------------|---------------|-4-4-4-4-4-4-4-4-|-----------------|
|--------------|---------------|-4-4-4-4-4-4-4-4-|-4-4-4-4-4-4-4-4-|
|--------------|---------------|-2-2-2-2-2-2-2-2-|-4-4-4-4-4-4-4-4-|
|--------------|---------------|-----------------|-2-2-2-2-2-2-2-2-|


  B5                          Eb5
  Q  Q  H       Q  H     Q    Q  Q  H       Q  H     Q
|-------------|-------------|-------------|-------------|
|-------------|-------------|-------------|-------------|
|-------------|-------------|-------------|-------------|
|-4-----6-----|-4-----------|-4-----6-----|-4-----------|
|-------------|-------------|-------------|-------------|
|-------------|----------7--|-------------|----------7--|
|
| Q  Q  Q  Q    Q  Q  Q  Q    Q  Q  Q  Q    Q  Q  Q  Q
|-------------|-------------|-------------|-------------|
|-------------|-------------|-------------|-------------|
|-4--4--4--4--|-4--4--4--4--|-8--8--8--8--|-8--8--8--8--|
|-4--4--4--4--|-4--4--4--4--|-8--8--8--8--|-8--8--8--8--|
|-2--2--2--2--|-2--2--2--2--|-6--6--6--6--|-6--6--6--6--|
|-------------|-------------|-------------|-------------|


  E5                           B5                Gb5
  Q  Q  H       Q  H     E E   E E E Q   E E E   E E E Q   E Q
|-------------|--------------|-----------------|----------------|
|-------------|--------------|-----------------|----------------|
|-------6-----|-4------------|-----------------|----------------|
|-4-----6-----|-4------------|-4-4---4---------|-4-4---4--------|
|-------------|----------6-7-|-------------6-7-|----------------|
|-------------|--------------|-----------------|-------------7--|
|
| Q  Q  Q  Q    Q  Q  Q  Q     Q   Q   Q   Q     Q   Q   Q   Q
|-------------|--------------|-----------------|----------------|
|-------------|--------------|-----------------|----------------|
|-9--9--9--9--|-9--9--9--9---|-4---4---4---4---|----------------|
|-9--9--9--9--|-9--9--9--9---|-4---4---4---4---|-4---4---4---4--|
|-7--7--7--7--|-7--7--7--7---|-2---2---2---2---|-4---4---4---4--|
|-------------|--------------|-----------------|-2---2---2---2--|


  B                                  Ebm
  Q   Q   H         Q   H      Q     Q   Q   H         Q   H      Q
|-----------------|----------------|-----------------|----------------|
|-----------------|----------------|-----------------|----------------|
|-----------------|----------------|-----------------|----------------|
|-4-------6-------|-4--------------|-4-------6-------|-4--------------|
|-----------------|----------------|-----------------|----------------|
|-----------------|------------7---|-----------------|------------7---|
|
|   Gtr I
| E E E E E E E E   E E E Q  E E E   E E E E E E E E   E E E Q  E E E
|-7-7---7-x-7-x-7-|-x-7-x-7----7---|-6-6---6-x-6-x-6-|-x-6-x-6----6---|
|-7-7---7-x-7-x-7-|-x-7-x-7----7---|-7-7---7-x-7-x-7-|-x-7-x-7----7---|
|-8-8---8-x-8-x-8-|-x-8-x-8----8---|-8-8---8-x-8-x-8-|-x-8-x-8----8---|
|-----------------|----------------|-----------------|----------------|
|-----------------|----------------|-----------------|----------------|
|-----------------|----------------|-----------------|----------------|


  E                                   B                   Gb
  Q   Q   H         Q   H       E E   E E E Q.      E E   E E E H       +E
|-----------------|-----------------|-------------------|-------------------|
|-----------------|-----------------|-------------------|-------------------|
|---------6-------|-4---------------|-------------------|-------------------|
|-4-------6-------|-4---------------|-4-4---4-----------|-4-4---4-------(4)-|
|-----------------|-------------6-7-|---------------6-7-|-------------------|
|-----------------|-----------------|-------------------|-------------------|
|
| E E E E E E E E   E E E E E Q   E   E E E E  E Q.       E E E E E Q.
|-0-0---0-x-0-x-0-|-x-0-x-0-x-0-----|-7-7---7--x-7------|-2-2---2-x-2-------|
|-0-0---0-x-0-x-0-|-x-0-x-0-x-0-----|-7-7---7--x-7------|-2-2---2-x-2-------|
|-1-1---1-x-1-x-1-|-x-1-x-1-x-1-----|-8-8---8--x-8------|-3-3---3-x-3-------|
|-----------------|-----------------|-------------------|-------------------|
|-----------------|-----------------|-------------------|-------------------|
|-----------------|-----------------|-------------------|-------------------|


 Verse
  B                                  Ebm
  Gtr I
  E E E E E E q    E E E E E E E E   E E E E E E E E   E E E E E Q  E
|-7-7---7-x-7-7--|-x-7-x-7-x-7-x-7-|-6-6---6-x-6-x-6-|-x-6-x-6---6----|
|-7-7---7-x-7-7--|-x-7-x-7-x-7-x-7-|-7-7---7-x-7-x-7-|-x-7-x-7---7----|
|-8-8---8-x-8-8--|-x-8-x-8-x-8-x-8-|-8-8---8-x-8-x-8-|-x-8-x-8---8----|
|----------------|-----------------|-----------------|----------------|
|----------------|-----------------|-----------------|----------------|
|----------------|-----------------|-----------------|----------------|


  E                                  B                 Gb
  E E E E E E E E   E E E E E Q  E   E E E E E E E E    E  E E E E E E E
|-0-0---0-x-0-x-0-|-x-0-x-0-x-0----|-7-7-x-7-x-7-x-7-|--2--2-x-2-x-2-x-2-|
|-0-0---0-x-0-x-0-|-x-0-x-0-x-0----|-7-7-x-7-x-7-x-7-|--2--2-x-2-x-2-x-2-|
|-1-1---1-x-1-x-1-|-x-1-x-1-x-1----|-8-8-x-8-x-8-x-8-|--3--3-x-3-x-3-x-3-|
|-----------------|----------------|-----------------|-------------------|
|-----------------|----------------|-----------------|-------------------|
|-----------------|----------------|-----------------|-------------------|
|
| Gtr III
| W                 W                Q   q   E E E E   +W
|-----------------|----------------|-----------------|-------------------|
|-----------------|----------------|-----------------|-------------------|
|-----------------|----------------|-----8---6-------|-------------------|
|-----------------|----------------|-----------9-----|-------------------|
|-----------------|----------------|---------------9-|-(9)---------------|
|-----------------|----------------|-----------------|-------------------|


  B                                   Ebm
  E E E E E E E E   E E E E E E E E   E E E E E E E E   E E E E E Q  E
|-7-7-x-7-x-7-x-7-|-x-7-x-7-x-7-x---|-6-6-x-6-x-6-x-6-|-x-6-x-6---6----|
|-7-7-x-7-x-7-x-7-|-x-7-x-7-x-7-x---|-7-7-x-7-x-7-x-7-|-x-7-x-7---7----|
|-8-8-x-8-x-8-x-8-|-x-8-x-8-x-8-x---|-8-8-x-8-x-8-x-8-|-x-8-x-8---8----|
|-----------------|-----------------|-----------------|----------------|
|-----------------|-----------------|-----------------|----------------|
|-----------------|-----------------|-----------------|----------------|


  E                                  B                 Gb
  E E E E E E E E   E E E E E Q  E   E E E E E E E E    E  E E E E E E E
|-0-0-x-0-x-0-x-0-|-x-0-x-0-x-0----|-7-7-x-7-x-7-x-7-|--2--2-x-2-x-2-x-2-|
|-0-0-x-0-x-0-x-0-|-x-0-x-0-x-0----|-7-7-x-7-x-7-x-7-|--2--2-x-2-x-2-x-2-|
|-1-1-x-1-x-1-x-1-|-x-1-x-1-x-1----|-8-8-x-8-x-8-x-8-|--3--3-x-3-x-3-x-3-|
|-----------------|----------------|-----------------|-------------------|
|-----------------|----------------|-----------------|-------------------|
|-----------------|----------------|-----------------|-------------------|
|
| Gtr III
| W                 W                Q   q   E E E E   +W
|-----------------|----------------|-----------------|-------------------|
|-----------------|----------------|-----------------|-------------------|
|-----------------|----------------|-----8---6-------|-------------------|
|-----------------|----------------|-----------9-----|-------------------|
|-----------------|----------------|---------------9-|-(9)---------------|
|-----------------|----------------|-----------------|-------------------|


  B                                   Ebm
  E E E E E E E E   E E E E E E E E   E E E E E E E E   E E E E E Q   E
|-7-7-x-7-x-7-x-7-|-x-7-x-7-x-7-x---|-6-6-x-6-x-6-x-6-|-x-6-x-6---6-----|
|-7-7-x-7-x-7-x-7-|-x-7-x-7-x-7-x---|-7-7-x-7-x-7-x-7-|-x-7-x-7---7-----|
|-8-8-x-8-x-8-x-8-|-x-8-x-8-x-8-x---|-8-8-x-8-x-8-x-8-|-x-8-x-8---8-----|
|-----------------|-----------------|-----------------|-----------------|
|-----------------|-----------------|-----------------|-----------------|
|-----------------|-----------------|-----------------|-----------------|
|
| W                 Q   E E E E Q     W                 Q   E E E E Q
|-----------------|-----------------|-----------------|-----------------|
|-----------------|-----------------|-----------------|-----------------|
|-----------------|-----------------|-----------------|-----------------|
|-----------------|-----9---8-9-----|-----------------|-----9---8-9-----|
|-----------------|-----------------|-----------------|-----------------|
|-----------------|-----------------|-----------------|-----------------|


  E                                  B                 Gb
  E E E E E E E E   E E E E E Q  E   E E E E E E E E    E  E E E E E E E
|-0-0-x-0-x-0-x-0-|-x-0-x-0-x-0----|-7-7-x-7-x-7-x-7-|--2--2-x-2-x-2-x-2-|
|-0-0-x-0-x-0-x-0-|-x-0-x-0-x-0----|-7-7-x-7-x-7-x-7-|--2--2-x-2-x-2-x-2-|
|-1-1-x-1-x-1-x-1-|-x-1-x-1-x-1----|-8-8-x-8-x-8-x-8-|--3--3-x-3-x-3-x-3-|
|-----------------|----------------|-----------------|-------------------|
|-----------------|----------------|-----------------|-------------------|
|-----------------|----------------|-----------------|-------------------|
|
| W                 W                Q   q   E E E E   +W
|-----------------|----------------|-----------------|-------------------|
|-----------------|----------------|-----------------|-------------------|
|-----------------|----------------|-----8---6-------|-------------------|
|-----------------|----------------|-----------9-----|-------------------|
|-----------------|----------------|---------------9-|-(9)---------------|
|-----------------|----------------|-----------------|-------------------|


  $
  B                                    Ebm
  E E E E E E E E   E  E E E E E E E   E E E E E E E E    E  E E E E Q  E
|-7-7-x-7-x-7-x-7-|-x--7-x-7-x-7-x---|-6-6-x-6-x-6-x-6-|--x--6-x-6---6----|
|-7-7-x-7-x-7-x-7-|-x--7-x-7-x-7-x---|-7-7-x-7-x-7-x-7-|--x--7-x-7---7----|
|-8-8-x-8-x-8-x-8-|-x--8-x-8-x-8-x---|-8-8-x-8-x-8-x-8-|--x--8-x-8---8----|
|-----------------|------------------|-----------------|------------------|
|-----------------|------------------|-----------------|------------------|
|-----------------|------------------|-----------------|------------------|
|
| H       H         H        H         H       H          H        H
|-----------------|------------------|-----------------|--6--------7------|
|-----------------|------------------|-7-------9-------|------------------|
|---------6-------|-8--------9-------|-----------------|------------------|
|-9---------------|------------------|-----------------|------------------|
|-----------------|------------------|-----------------|------------------|
|-----------------|------------------|-----------------|------------------|
|
|   Gtr II
| W                 H.           E E   W                 +W
|-----------------|------------------|-----------------|------------------|
|-----------------|------------------|-----------------|------------------|
|-----------------|--------------x-x-|-8---------------|-(8)--------------|
|-----------------|--------------x-x-|-8---------------|-(8)--------------|
|-----------------|--------------x-x-|-6---------------|-(6)--------------|
|-----------------|------------------|-----------------|------------------|


  E                                              B               Gb
  E E E E E E E E    E  E E E E Q  E   E E E E E E E E   E E E E E E E E
|-0-0-x-0-x-0-x-0-|--x--0-x-0-x-0----|-7-7-x-7-x-7-x-7-|-2-2-x-2-x-2-x-2-|
|-0-0-x-0-x-0-x-0-|--x--0-x-0-x-0----|-7-7-x-7-x-7-x-7-|-2-2-x-2-x-2-x-2-|
|-1-1-x-1-x-1-x-1-|--x--1-x-1-x-1----|-8-8-x-8-x-8-x-8-|-3-3-x-3-x-3-x-3-|
|-----------------|------------------|-----------------|-----------------|
|-----------------|------------------|-----------------|-----------------|
|-----------------|------------------|-----------------|-----------------|
|
| W                  W                 W                 q   q   q   E e
|-----------------|------------------|-----------------|-----------------|
|-9---------------|------------------|-----------------|-----------------|
|-----------------|------------------|-----------------|-----------------|
|-----------------|------------------|-----------------|-4---6---4---6-4-|
|-----------------|------------------|-----------------|-----------------|
|-----------------|------------------|-----------------|-----------------|
|
| W                 +W                 Q   Q   E E E E   Q   Q   Q   Q
|-----------------|------------------|-----------------|-----------------|
|-----------------|------------------|-----------------|-----------------|
|-9---------------|-(9)--------------|-4---4---4-4-4-4-|-----------------|
|-9---------------|-(9)--------------|-4---4---4-4-4-4-|-4---4---4---4---|
|-7---------------|-(7)--------------|-2---2---2-2-2-2-|-4---4---4---4---|
|-----------------|------------------|-----------------|-2---2---2---2---|


                     Chorus
                      Db5                         Ab5
  E E E E E E E E     Q  Q  Q  Q    Q  Q  Q  Q    Q  Q  Q  Q
|-x-2-x-2-x-2-x-2-||--------------|-------------|-------------|
|-x-2-x-2-x-2-x-2-||o-------------|-------------|----9-----9--|
|-x-3-x-3-x-3-x-3-||-----6-----6--|----6-----6--|----8-----8--|
|-----------------||-----6-----6--|----6-----6--|----6-----6--|
|-----------------||o----4-----4--|----4-----4--|-------------|
|-----------------||--------------|-------------|-------------|
|
| E e q   q   q       Q  Q  Q  Q    Q  Q  Q  Q    Q  Q  Q  Q
|-----------------||--------------|-------------|-------------|
|-----------------||o-------------|-------------|-------------|
|-----------------||--6--------6--|----------6--|-5--------5--|
|---4-6---4---6---||-----6--8-----|----6--8-----|----6--8-----|
|-----------------||o-------------|-------------|-------------|
|-----------------||--------------|-------------|-------------|
|
| Q   Q   Q   Q       W             W             W
|-----------------||--------------|-------------|-------------|
|-----------------||o-------------|-------------|-------------|
|-----------------||--------------|-------------|-------------|
|-4---4---4---4---||--------------|-------------|-------------|
|-4---4---4---4---||o-------------|-------------|-------------|
|-2---2---2---2---||--------------|-------------|-------------|


                Eb5                              Gb5
  Q  Q  Q  Q    Q  Q  Q  Q    Q  Q  Q  Q     Q   Q  Q  Q
|-------------|-------------|-------------|---------------|
|----9-----9--|-------------|-------------|---------------|
|----8-----8--|----8-----8--|----8-----8--|---------------|
|----6-----6--|----8-----8--|----8-----8--|------4-----4--|
|-------------|----6-----6--|----6-----6--|------4-----4--|
|-------------|-------------|-------------|------2-----2--|
|
| Q  Q  Q  Q    Q  Q  Q  Q    Q  Q  Q  Q     H.        Q
|-------------|-------------|-------------|---------------|
|-------------|-------------|-------------|---------------|
|----------5--|-8--------8--|----------8--|-11---------8--|
|----6--8-----|----6--8-----|----6--8-----|---------------|
|-------------|-------------|-------------|---------------|
|-------------|-------------|-------------|---------------|
|
| W             W             W              W
|-------------|-------------|-------------|---------------|
|-------------|-------------|-------------|---------------|
|-------------|-------------|-------------|---------------|
|-------------|-------------|-------------|---------------|
|-------------|-------------|-------------|---------------|
|-------------|-------------|-------------|---------------|


         To Coda
       Ab5          B5                               Eb5
   Q   Q  Q  Q      W               W                W
|----------------||--------------|-----------------|--------------|
|---------------o||--------------|-----------------|--------------|
|----------------||--------------|-----------------|--------------|
|------6-----6---||--------------|-----------------|--------------|
|------6-----6--o||--------------|-----------------|--------------|
|------4-----4---||--------------|-----------------|--------------|
|
| +W                Q  Q  H         Q   H      Q     Q  Q  H
|----------------||--------------|-----------------|--------------|
|---------------o||--------------|-----------------|--------------|
|-(8)------------||--------------|-----------------|--------------|
|----------------||-4-----6------|--4--------------|-4-----6------|
|---------------o||--------------|-----------------|--------------|
|----------------||--------------|-------------7---|--------------|
|
|  W                Q  Q  Q  E E   +Q   E Q  Q   E   Q  Q  Q  E E
|----------------||--------------|-----------------|--------------|
|---------------o||--------------|-----------------|--------------|
|----------------||-4--4--4--4-4-|-(4)--4-4--4---4-|-8--8--8--8-8-|
|----------------||-4--4--4--4-4-|-(4)--4-4--4---4-|-8--8--8--8-8-|
|---------------o||-2--2--2--2-2-|-(2)--2-2--2---2-|-6--6--6--6-6-|
|----------------||--------------|-----------------|--------------|


                    E5                               B5
   W                W               W                W
|-----------------|--------------|-----------------|-----------------|
|-----------------|--------------|-----------------|-----------------|
|-----------------|--------------|-----------------|-----------------|
|-----------------|--------------|-----------------|-----------------|
|-----------------|--------------|-----------------|-----------------|
|-----------------|--------------|-----------------|-----------------|
|
|  Q   H      Q     Q  Q  H         Q   H      E E   E E E Q.    E E
|-----------------|--------------|-----------------|-----------------|
|-----------------|--------------|-----------------|-----------------|
|-----------------|-------6------|--4--------------|-----------------|
|--4--------------|-4-----6------|--4--------------|-4-4---4---------|
|-----------------|--------------|-------------6-7-|-------------6-7-|
|-------------7---|--------------|-----------------|-----------------|
|
| +Q   E Q  Q   E   Q  Q  Q  E E   +Q   E Q  Q   E   Q   E Q   E E E
|-----------------|--------------|-----------------|-----------------|
|-----------------|--------------|-----------------|-----------------|
|-(8)--8-8--8---8-|-9--9--9--9-9-|-(9)--9-9--9---9-|-4---4-4---4-4-4-|
|-(8)--8-8--8---8-|-9--9--9--9-9-|-(9)--9-9--9---9-|-4---4-4---4-4-4-|
|-(6)--6-6--6---6-|-7--7--7--7-7-|-(7)--7-7--7---7-|-2---2-2---2-2-2-|
|-----------------|--------------|-----------------|-----------------|


                      Verse
  Gb5                  B
  W                    E E E E E E E E
|-------------------||-7-7-x-7-x-7-x-7-|
|-------------------||-7-7-x-7-x-7-x-7-|
|-------------------||-8-8-x-8-x-8-x-8-|
|-------------------||-----------------|
|-------------------||-----------------|
|-------------------||-----------------|
|
| E E E H       +E     W
|-------------------||-----------------|
|-------------------||-----------------|
|-------------------||-----------------|
|-4-4---4-------(4)-||-----------------|
|-------------------||-----------------|
|-------------------||-----------------|
|
| Q   Q   E E E  E     W
|-------------------||-----------------|
|-------------------||-----------------|
|-------------------||-----------------|
|-4---4---4-4-4--4--||-----------------|
|-4---4---4-4-4--4--||-----------------|
|-2---2---2-2-2--2--||-----------------|


                    Ebm
  E E E E E E E E   E E E E E E E E   E E E E E Q  E
|-x-7-x-7-x-7-x---|-6-6-x-6-x-6-x-6-|-x-6-x-6---6-----|
|-x-7-x-7-x-7-x---|-7-7-x-7-x-7-x-7-|-x-7-x-7---7-----|
|-x-8-x-8-x-8-x---|-8-8-x-8-x-8-x-8-|-x-8-x-8---8-----|
|-----------------|-----------------|-----------------|
|-----------------|-----------------|-----------------|
|-----------------|-----------------|-----------------|
|
| W                 W                 W
|-----------------|-----------------|-----------------|
|-----------------|-----------------|-----------------|
|-----------------|-----------------|-----------------|
|-----------------|-----------------|-----------------|
|-----------------|-----------------|-----------------|
|-----------------|-----------------|-----------------|
|
| W                 W                 W
|-----------------|-----------------|-----------------|
|-----------------|-----------------|-----------------|
|-----------------|-----------------|-----------------|
|-----------------|-----------------|-----------------|
|-----------------|-----------------|-----------------|
|-----------------|-----------------|-----------------|


  E                                  B                 Gb
  E E E E E E E E   E E E E E Q  E   E E E E E E E E    E  E E E E E E E
|-0-0-x-0-x-0-x-0-|-x-0-x-0-x-0----|-7-7-x-7-x-7-x-7-|--2--2-x-2-x-2-x-2-|
|-0-0-x-0-x-0-x-0-|-x-0-x-0-x-0----|-7-7-x-7-x-7-x-7-|--2--2-x-2-x-2-x-2-|
|-1-1-x-1-x-1-x-1-|-x-1-x-1-x-1----|-8-8-x-8-x-8-x-8-|--3--3-x-3-x-3-x-3-|
|-----------------|----------------|-----------------|-------------------|
|-----------------|----------------|-----------------|-------------------|
|-----------------|----------------|-----------------|-------------------|
|
| W                 W                Q   q   E E E E   +W
|-----------------|----------------|-----------------|-------------------|
|-----------------|----------------|-----------------|-------------------|
|-----------------|----------------|-----8---6-------|-------------------|
|-----------------|----------------|-----------9-----|-------------------|
|-----------------|----------------|---------------9-|-(9)---------------|
|-----------------|----------------|-----------------|-------------------|


  B                                   Ebm
  E E E E E E E E   E E E E E E E E   E E E E E E E E   E E E E E Q   E
|-7-7-x-7-x-7-x-7-|-x-7-x-7-x-7-x---|-6-6-x-6-x-6-x-6-|-x-6-x-6---6-----|
|-7-7-x-7-x-7-x-7-|-x-7-x-7-x-7-x---|-7-7-x-7-x-7-x-7-|-x-7-x-7---7-----|
|-8-8-x-8-x-8-x-8-|-x-8-x-8-x-8-x---|-8-8-x-8-x-8-x-8-|-x-8-x-8---8-----|
|-----------------|-----------------|-----------------|-----------------|
|-----------------|-----------------|-----------------|-----------------|
|-----------------|-----------------|-----------------|-----------------|
|
| W                 Q   E E E E Q     W                 Q   E E E E Q
|-----------------|-----------------|-----------------|-----------------|
|-----------------|-----------------|-----------------|-----------------|
|-----------------|-----------------|-----------------|-----------------|
|-----------------|-----9---8-9-----|-----------------|-----9---8-9-----|
|-----------------|-----------------|-----------------|-----------------|
|-----------------|-----------------|-----------------|-----------------|


  E                                  B                 Gb
  E E E E E E E E   E E E E E Q  E   E E E E E E E E    E  E E E E E E E
|-0-0-x-0-x-0-x-0-|-x-0-x-0-x-0----|-7-7-x-7-x-7-x-7-|--2--2-x-2-x-2-x-2-|
|-0-0-x-0-x-0-x-0-|-x-0-x-0-x-0----|-7-7-x-7-x-7-x-7-|--2--2-x-2-x-2-x-2-|
|-1-1-x-1-x-1-x-1-|-x-1-x-1-x-1----|-8-8-x-8-x-8-x-8-|--3--3-x-3-x-3-x-3-|
|-----------------|----------------|-----------------|-------------------|
|-----------------|----------------|-----------------|-------------------|
|-----------------|----------------|-----------------|-------------------|
|
| W                 W                Q   q   E E E E   +W
|-----------------|----------------|-----------------|-------------------|
|-----------------|----------------|-----------------|-------------------|
|-----------------|----------------|-----8---6-------|-------------------|
|-----------------|----------------|-----------9-----|-------------------|
|-----------------|----------------|---------------9-|-(9)---------------|
|-----------------|----------------|-----------------|-------------------|


  B                                   Ebm
  E E E E E E E E   E E E E E E E E   E E E E E E E E   E E E E E Q  E
|-7-7-x-7-x-7-x-7-|-x-7-x-7-x-7-x---|-6-6-x-6-x-6-x-6-|-x-6-x-6---6----|
|-7-7-x-7-x-7-x-7-|-x-7-x-7-x-7-x---|-7-7-x-7-x-7-x-7-|-x-7-x-7---7----|
|-8-8-x-8-x-8-x-8-|-x-8-x-8-x-8-x---|-8-8-x-8-x-8-x-8-|-x-8-x-8---8----|
|-----------------|-----------------|-----------------|----------------|
|-----------------|-----------------|-----------------|----------------|
|-----------------|-----------------|-----------------|----------------|


                                                         D.S. al Coda
  E                                  B                 Gb
  E E E E E E E E   E E E E E Q  E   E E E E E E E E   E E E E E E E E
|-0-0-x-0-x-0-x-0-|-x-0-x-0-x-0----|-7-7-x-7-x-7-x-7-|-2-2-x-2-x-2-x-2-|
|-0-0-x-0-x-0-x-0-|-x-0-x-0-x-0----|-7-7-x-7-x-7-x-7-|-2-2-x-2-x-2-x-2-|
|-1-1-x-1-x-1-x-1-|-x-1-x-1-x-1----|-8-8-x-8-x-8-x-8-|-3-3-x-3-x-3-x-3-|
|-----------------|----------------|-----------------|-----------------|
|-----------------|----------------|-----------------|-----------------|
|-----------------|----------------|-----------------|-----------------|


    &
    Db5                         Ab5
    Q  Q  Q  Q    Q  Q  Q  Q    Q  Q  Q  Q    Q  Q  Q  Q
||--------------|-------------|-------------|--------------|
||o-------------|-------------|----9-----9--|----9-----9---|
||-----6-----6--|----6-----6--|----8-----8--|----8-----8---|
||-----6-----6--|----6-----6--|----6-----6--|----6-----6---|
||o----4-----4--|----4-----4--|-------------|--------------|
||--------------|-------------|-------------|--------------|
|
|   Gtr III
|   Q  Q  Q  Q    Q  Q  Q  Q    Q  Q  Q  Q    Q  Q  Q  Q
||--------------|-------------|-------------|--------------|
||o-------------|-------------|-------------|--------------|
||--6--------6--|----------6--|-5--------5--|----------5---|
||-----6--8-----|----6--8-----|----6--8-----|----6--8------|
||o-------------|-------------|-------------|--------------|
||--------------|-------------|-------------|--------------|


  Eb5                         Gb5
  Q  Q  Q  Q    Q  Q  Q  Q     Q   Q  Q  Q    Q  Q  Q  Q
|-------------|-------------|---------------|--------------||
|-------------|-------------|---------------|-------------o||
|----8-----8--|----8-----8--|---------------|--------------||
|----8-----8--|----8-----8--|------4-----4--|----6-----6---||
|----6-----6--|----6-----6--|------4-----4--|----6-----6--o||
|-------------|-------------|------2-----2--|----4-----4---||
|
| Q  Q  Q  Q    Q  Q  Q  Q     H.        Q    W
|-------------|-------------|---------------|--------------||
|-------------|-------------|---------------|-------------o||
|-8--------8--|----------8--|-11---------8--|-8------------||
|----6--8-----|----6--8-----|---------------|--------------||
|-------------|-------------|---------------|-------------o||
|-------------|-------------|---------------|--------------||


 Interlude
  H.=H     Q=120
  Db5
  W          +W
|----------|--------|
|----------|--------|
|-6--------|-(6)----|
|-6--------|-(6)----|
|-4--------|-(4)----|
|----------|--------|
|
| W          +W
|----------|--------|
|----------|--------|
|-6--------|-(6)----|
|----------|--------|
|----------|--------|
|----------|--------|


    Db
    e  e e  e e  e e  e   e  e e  e e  e e  e
||-----9----9----9----9-|----9----9----9----9-|
||o----9----9----9----9-|----9----9----9----9-|
||----10---10---10---10-|---10---10---10---10-|
||----------------------|---------------------|
||o---------------------|---------------------|
||----------------------|---------------------|
|
|   Q    q    q    q      q    q    q    q
||----------------------|---------------------|
||o---------------------|---------------------|
||-------6---------6----|------6---------6s===|
||----------------------|---------------------|
||o---------------------|---------------------|
||----------------------|---------------------|


  Ab
  E e E e E e E e   E e E e E e E e
|-8-8---8---8---8-|---8---8---8---8--|
|-9-9---9---9---9-|---9---9---9---9--|
|-8-8---8---8---8-|---8---8---8---8--|
|-----------------|------------------|
|-----------------|------------------|
|-----------------|------------------|
|
| Q   q   Q   q     Q   q   Q   q
|-----------------|------------------|
|-----------------|------------------|
|-5---5-------5---|-----5-------5s===|
|-----------------|------------------|
|-----------------|------------------|
|-----------------|------------------|


  Ebm                                 Gb                  AbAbsAbsus4Ab
  E e E e E e E e   E e E e E e E e   E e e e e e e e   E E  e Q   E  Q
|-6-6---6---6---6-|---6---6---6---6-|-9-9---9---9---9-|---9-11-9---9-11---||
|-7-7---7---7---7-|---7---7---7---7-|-7-7---7---7---7-|---9--9-9---9--9--o||
|-8-8---8---8---8-|---8---8---8---8-|-----------------|-------------------||
|-----------------|-----------------|-----------------|-------------------||
|-----------------|-----------------|-----------------|------------------o||
|-----------------|-----------------|-----------------|-------------------||
|
| Q   q   q   q     q   q   q   q     Q   q   Q   q     Q    q   Q    q
|-----------------|-----------------|-----------------|-------------------||
|-----------------|-----------------|-----------------|------------------o||
|-3---3-------3---|-----3-------3s==|=1---1-------1---|------1--------1---||
|-----------------|-----------------|-----------------|-------------------||
|-----------------|-----------------|-----------------|------------------o||
|-----------------|-----------------|-----------------|-------------------||


                                               H
  Db
   e  e e  e e  e e  e    e  e e  e  e  e e  e
|-----9----9----9----9-|-----9----9-----9----9-|
|-----9----9----9----9-|-----9----9-----9----9-|
|----10---10---10---10-|----10---10----10---10-|
|----------------------|-----------------------|
|----------------------|-----------------------|
|----------------------|-----------------------|
|
|  H         H            H          H
|----------------------|-----------------------|
|----------------------|-----------------------|
|------------8---------|-10---------11---------|
|-11-------------------|-----------------------|
|----------------------|-----------------------|
|----------------------|-----------------------|


 =H
  Ab
  E e E e  E e E e   E e E e E e E e
|-8-8---8----8---8-|---8---8---8---8-|
|-9-9---9----9---9-|---9---9---9---9-|
|-8-8---8----8---8-|---8---8---8---8-|
|------------------|-----------------|
|------------------|-----------------|
|------------------|-----------------|
|
| H        H         H       H
|------------------|-8-------9-------|
|-9-------11-------|-----------------|
|------------------|-----------------|
|------------------|-----------------|
|------------------|-----------------|
|------------------|-----------------|


  Eb                                 Gb                Ab
  E e E e E e E e    Q   Q  E Q.     E E E E E E E E    E  E  E  E  E  E  E  E
|-6-6---6---6---6-|----------------|-9-9-9-9-9-9-9-9-|-11-11-11-11-11-11-11-11-|
|-7-7---7---7---7-|----------------|-7-7-7-7-7-7-7-7-|--9--9--9--9--9--9--9--9-|
|-8-8---8---8---8-|-10---8--6-8----|-----------------|-------------------------|
|-----------------|----------------|-----------------|-------------------------|
|-----------------|----------------|-----------------|-------------------------|
|-----------------|----------------|-----------------|-------------------------|
|
| W                 +W               W                  W
|-6---------------|-(6)------------|-----------------|-------------------------|
|-----------------|----------------|-7---------------|--9----------------------|
|-----------------|----------------|-----------------|-------------------------|
|-----------------|----------------|-----------------|-------------------------|
|-----------------|----------------|-----------------|-------------------------|
|-----------------|----------------|-----------------|-------------------------|


  Q=200
  Db             Ab            Eb             Gb      Ab
   E H..         E H..          E H..         E E E E  E  E  E  E
|--9-----------|-8-----------|-11-----------|-9-9-9-9-11-11-11-11-|
|--9-----------|-9-----------|-11-----------|-7-7-7-7--9--9--9--9-|
|-10-----------|-8-----------|--------------|---------------------|
|--------------|-------------|--------------|---------------------|
|--------------|-------------|--------------|---------------------|
|--------------|-------------|--------------|---------------------|
|
|  E H..         E H..          E H..         H        H
|--------------|-------------|--------------|---------------------|
|--------------|-------------|--------------|---------------------|
|--6-----------|-------------|--8-----------|---------------------|
|--------------|-6-----------|--------------|-4--------6----------|
|--------------|-------------|--------------|---------------------|
|--------------|-------------|--------------|---------------------|
|
| Gtr II
|                                             PM----|
|  E H..         E H..          E H..         E E E E  E  E  E  E
|--------------|-------------|--------------|---------------------|
|--------------|-------------|--------------|---------------------|
|--6-----------|-------------|--8-----------|---------------------|
|--6-----------|-6-----------|--8-----------|-4-4-4-4--6--6--6--6-|
|--4-----------|-6-----------|--6-----------|-4-4-4-4--6--6--6--6-|
|--------------|-4-----------|--------------|-2-2-2-2--4--4--4--4-|


  Db            C             Bb            Gb      Ab
  Gtr III
  W             H     H       W             H       H
|-------------|-------------|-------------|-----------------|
|-------------|-------------|-------------|-----------------|
|-6-----------|-5-----6-----|-3-----------|-6-------5-------|
|-------------|-------------|-------------|-----------------|
|-------------|-------------|-------------|-----------------|
|-------------|-------------|-------------|-----------------|
|
| Gtr II
|                                           PM------------|
| q  q  q  q    q  q  q  q    q  q  q  q    E E E E E E E E
|-------------|-------------|-------------|-----------------|
|-------------|-------------|-------------|-----------------|
|-6--6--6--6--|-5--5--6--6--|-3--3--3--3--|-----------------|
|-6--6--6--6--|-5--5--6--6--|-3--3--3--3--|-4-4-4-4-6-6-6-6-|
|-4--4--4--4--|-3--3--4--4--|-1--1--1--1--|-4-4-4-4-6-6-6-6-|
|-------------|-------------|-------------|-2-2-2-2-4-4-4-4-|


  Db            C     Db      Bb            Gb      Ab
  W             H     H       W             H       H
|-------------|-------------|-------------|-----------------|
|-9-----------|-8-----9-----|-6-----------|-9-------8-------|
|-6-----------|-5-----6-----|-3-----------|-6-------5-------|
|-------------|-------------|-------------|-----------------|
|-------------|-------------|-------------|-----------------|
|-------------|-------------|-------------|-----------------|
|
|                                           PM------------|
| q  q  q  q    q  q  q  q    q  q  q  q    E E E E E E E E
|-------------|-------------|-------------|-----------------|
|-------------|-------------|-------------|-----------------|
|-6--6--6--6--|-5--5--6--6--|-3--3--3--3--|-----------------|
|-6--6--6--6--|-5--5--6--6--|-3--3--3--3--|-4-4-4-4-6-6-6-6-|
|-4--4--4--4--|-3--3--4--4--|-1--1--1--1--|-4-4-4-4-6-6-6-6-|
|-------------|-------------|-------------|-2-2-2-2-4-4-4-4-|


                            H.=H       Q=120
  Db            C     Db      Bb
  W             H     H       W          W
|-------------|-------------|----------|------*|
|-9-----------|-8-----9-----|-6--------|------*|
|-6-----------|-5-----6-----|-3--------|------*|
|-------------|-------------|----------|------*|
|-------------|-------------|----------|------*|
|-------------|-------------|----------|------*|
|
| q  q  q  q    q  q  q  q    W          W
|-------------|-------------|----------|------*|
|-------------|-------------|----------|------*|
|-6--6--6--6--|-5--5--6--6--|-3--------|------*|
|-6--6--6--6--|-5--5--6--6--|-3--------|------*|
|-4--4--4--4--|-3--3--4--4--|-1--------|------*|
|-------------|-------------|----------|------*|



Duration Legend
---------------
W - whole; H - half; Q - quarter; E - 8th; S - 16th; T - 32nd; X - 64th; a - acciaccatura
+ - note tied to previous; . - note dotted; .. - note double dotted
Uncapitalized letters represent notes that are staccato (1/2 duration)
Irregular groupings are notated above the duration line
Duration letters will always appear directly above the note/fret number it represents the
duration for.  Duration letters with no fret number below them represent rests.  Multi-
bar rests are notated in the form Wxn, where n is the number of bars to rest for.  Low
melody durations appear below the staff

Tablature Legend
----------------
 h   - hammer-on
 p   - pull-off
 b   - bend
 pb  - pre-bend
 r   - bend release (if no number after the r, then release immediately)
 /\  - slide into or out of (from/to "nowhere")
 s   - legato slide
 S   - shift slide
 - natural harmonic
[n]  - artificial harmonic
n(n) - tapped harmonic
 ~   - vibrato
 tr  - trill
 T   - tap
 TP  - trem. picking
 PM  - palm muting
\n/  - tremolo bar dip; n = amount to dip
 \n  - tremolo bar down
 n/  - tremolo bar up
/n\  - tremolo bar inverted dip
 =   - hold bend; also acts as connecting device for hammers/pulls
 <> - volume swell (louder/softer)
 x   - on rhythm slash represents muted slash
 o   - on rhythm slash represents single note slash

Misc Legend
-----------
 |  - bar
||  - double bar
||o - repeat start
o|| - repeat end
*|  - double bar (ending)
 :  - bar (freetime)
 $  - Segno
 &  - Coda
Tempo markers -  = BPM(8/16=s8/s16), where s8 = swing 8ths, s16 = swing 16ths





Comments


Popular Save Ferris tabs & chords
Come On Eileen Bass Tabs
Come On Eileen 1 Bass Tabs
Come On Eileen 2 Bass Tabs
Goodbye 2 Bass Tabs
Lies Bass Tabs
Mistaken Bass Tabs
The World Is New Bass Tabs
I'm Not Crying For You Chords
I'm Not Crying For You 1 Chords
Build Me Up Buttercup Ukulele


Song lyrics



↑ Back to top | Tablatures and chords are parodies/interpretations of the original songs. You may use it for private study, scholarship, research or language learning purposes only
© 2014 AZChords.com Contact us | Privacy policy | DMCA | Add/correct tabs | Request tabs | Top 50 tabs