» » »

Come On Eileen Bass tabs (ver.1)

Artists:  A B C D E F G H I J K L M N O P Q R S T U V W X Y Z # 

Come On Eileen Bass tabs (ver.1)

Save Ferris
Rating:
5/5 (4 votes)

Tabs too difficult? Try these video lessons and learn fast.
                  BTAB: Come On Eileen

**Padrino's Bass Tab Exclusive!**

This has got to be THE hardest song I have ever tabbed out. Its really hard
to play this song too because of all the changes and the seemingly chaotic
bassline. I think he is just mixing up different scales, its very hard to tell
though. This is for the most part right, I'm not sure about the last few notes
in a couple of areas. This will sound okay when played along with the CD
regardless of that.

Intro 1:
(play with the drum crashes in the trumpet solo)
                
G------------
D------------
A------------
E-2--10\2--2-


Intro 2:

(this is right before the song really starts when the guitar comes in, play
 it really Fast)
G---------------------------------
D---------------------------------
A-2-2-2-2-2-2-2-2-----------------
E-----------------2-2-2-2-2-2-2-2-

Distorted Verse:

G-----------------------------------------------------------------
D-----------------1-1-1-1-1-1-1-1-2-2-2-2-2-2-2-2-4-4-4-4-4-4-4-4-
A-2-2-2-2-2-2-2-2-------------------------------------------------
E-----------------------------------------------------------------

Ska Verse:

G---------------------3-------3-----------------------------------
D---1-4-1---1-4-1---4---4---4---4-----3-------3-------------------
A-2-------2-------1-------1---------2---2---2---2---1-6-1---1-6-1-
E---------------------------------4-------4-------2-------4-------

Chorus:

G-----------------------------------------------------------
D-----------------------------------------------------------
A-4---1-4---1-4-3---0-3---0-3-1-1-1-1-1-1-1-4-4-4-4-6-6-6-6-
E---4-----4-------3-----3-----------------------------------

Slow Chorus (near end):

G------------------------------------------------------------------------
D---3-6-3-6---3-6-3-6---3-6-3-6---3-6-3-6---0-3-0-3---0-3-0-3---3-6-3-6--
A-4---------4---------3---------3---------1---------1---------4----------
E------------------------------------------------------------------------

G-----------
D---3-6-3-6-
A-3---------
E-----------

Fast Ending Chorus:

G---------------------------------
D---------------------------------
A-4-4-4-4-3-3-4-4-1-1-1-1-3-3-3-3-
E---------------------------------

Ending Note:

G----
D----
A----
E--4-


Song Structure:

Intro 1 (x1)
Intro 2 (x1)
D. Verse (x1)
Ska Verse (x5)
Chorus (x2)
D. Verse (x1)
Ska Verse (x5)
Chorus (x3)
Slow Chorus (x3)
Fast End Chorus (x4)
End (x1)

I think there might be 5 fast end chorus parts. I am not sure its right there
but it sounds okay.
            
Tabs too difficult? Try these video lessons and learn fast.


comments powered by Disqus
↑ Back to top | Tablatures and chords are parodies/interpretations of the original songs. You may use it for private study, scholarship, research or language learning purposes only