>
 >
Edge Of Thorns 1

Edge Of Thorns 1 Guitar Tabs

Savatage - Edge Of Thorns 1 chords, tabs, tablatures, lyrics

Guitar lessons | Add/correct | Request | Top 50 tabs Artists:  A B C D E F G H I J K L M N O P Q R S T U V W X Y Z 0-9

Edge Of Thorns 1 Guitar Tabs – Savatage

CD, Sheet music, Poster

Do you like Edge Of Thorns 1? Share with your friends now
Bass TabsChordsTabsTabs v2Tabs v3Ukulele
Savatage
"Edge of Thorns"


Dropped D-Tuning

-------------|-------|---------|-------|------|-------------------------------|
-------------|-------|---------|-------|------|-------------------------------|
-------------|-------|---------|-------|------|-7-7-7-7-----------------------|
-------------|-0-----|--0------|-0-----|-0----|-7-7-7-7-----------------------|
-------------|-0-----|--0------|-0-----|-0----|-5-5-5-5-----------------------|
-------------|-0-----|--0------|-0-----|-0----|----------0-0--0-0--0-0--------|
 Piano Intro

----------------------|----------------------|--------------------------------|
----------------------|----------------------|--------------------------------|
-5-5-5-5--------------|-7-7-7-7--------------|-5-5-5-5------------------------|
-5-5-5-5--------------|-7-7-7-7--------------|-5-5-5-5------------------------|
-3-3-3-3--------------|-5-5-5-5--------------|-3-3-3-3------------------------|
---------0-0--0-0--0-0|---------0-0--0-0--0-0|---------0-0--0-0--\------------|


-----------------|----------------------|----------------------|--------------|
-----------------|----------------------|----------------------|--------------|
-3-------10-9----|-7-7-7-7--------------|-5-5-5-5--------------|-5/7-7-7------|
-3-------10-9----|-7-7-7-7--------------|-5-5-5-5--------------|-5/7-7-7------|
-1--1-/--8--7----|-5-5-5-5--------------|-3-3-3-3--------------|-3/5-5-5------|
-----------------|---------0-0--0-0--0-0|---------0-0--0-0--0-0|---------0-0--|
                   (verse)

---------|----------------------|----------------------|----------------------|
---------|----------------------|----------------------|----------------------|
---------|-5-5-5-5--------------|-5/7-7-7--------------|-5-5-5-5--------------|
---------|-5-5-5-5--------------|-5/7-7-7--------------|-5-5-5-5--------------|
---------|-3-3-3-3--------------|-3/5-5-5--------------|-3-3-3-3--------------|
-0-0--0-0|---------0-0--0-0--0-0|---------0-0--0-0--0-0|---------0-0--0-0--0--|


---|----------------------|----------------------|--------------|-------------|
---|----------------------|----------------------|--------------|-------------|
---|-5/7-7-7--------------|-5-5-5-5--------------|--------------|----9--10----|
---|-5/7-7-7--------------|-5-5-5-5--------------|-5-----------\|-0-----------|
---|-3/5-5-5--------------|-3-3-3-3--------------|-5-----------\|-0--7/-8/----|
-0-|---------0-0--0-0--0-0|---------0-0--0-0--0-\|-5-----------\|-0-----------|
                                                   A solitary dancer

---|------------------|-----------|------------------------|------------------|
---|------------------|-----------|------------------------|------------------|
-12|------------------|-----------|-3-------5--------------|-7----5---3-------|
---|-5----------------|-0-------\-|-3-------5--------------|-7----5---3-------|
-10|-5----------------|-0-------\-|-1-------3--------------|-5----3---1-------|
---|-5----------------|-0-------\-|------------------------|------------------|
     So lost upon her   stage       I have seen you on the  edge of dawn

-----------------------|---------------|-------------------------------|------|
-----------------------|---------------|-------------------------------|------|
-3----------5----------|-7----5-----3--|-3---------------5-------------|-7----|
-3----------5----------|-7----5-----3--|-3---------------5-------------|-7----|
-1----------3----------|-5----3-----1--|-1---------------3-------------|-5----|
-----------------------|---------------|-------------------------------|------|
 felt you here before    you were born   balanced your dreams upon the  edge

-----------|--------------------------------------|---------------------------|
-----------|--------------------------------------|---------------------------|
-5----3----|--------------------------------------|-7-7-7-7-------------------|
-5----3----|--------------------------12\---------|-7-7-7-7-------------------|
-3----1----|--------------------------12\---------|-5-5-5-5-------------------|
-----------|--------------------------12\---------|---------0-0--0-0--0-0-----|
 of thorns    But I don't think about you anymore

----------------------|----------------------|------------------------|-------|
----------------------|----------------------|------------------------|-------|
-5-5-5-5--------------|-5/7-7-7--------------|-5-5-5-5----------------|-3-----|
-5-5-5-5--------------|-5/7-7-7--------------|-5-5-5-5----------------|-3-----|
-3-3-3-3--------------|-3/5-5-5--------------|-3-3-3-3----------------|-1-1/--|
---------0-0--0-0--0-0|---------0-0--0-0--0-0|---------0-0--0-0--0-0-\|-------|


------|----------------------|----------------------|-------------------------|
------|----------------------|----------------------|-------------------------|
-10-9-|-7-7-7-7--------------|-5-5-5-5--------------|-5/7-7-7-----------------|
-10-9-|-7-7-7-7--------------|-5-5-5-5--------------|-5/7-7-7-----------------|
-8--7-|-5-5-5-5--------------|-3-3-3-3--------------|-3/5-5-5-----------------|
------|---------0-0--0-0--0-0|---------0-0--0-0--0-0|---------0-0--0-0--0-0---|
       (verse 2)

----------------------|-----------------------|----------------------|--------|
----------------------|-----------------------|----------------------|--------|
-5-5-5-5--------------|-5/7-7-7---------------|-5-5-5-5--------------|-5/7-7--|
-5-5-5-5--------------|-5/7-7-7---------------|-5-5-5-5--------------|-5/7-7--|
-3-3-3-3--------------|-3/5-5-5---------------|-3-3-3-3--------------|-3/5-5--|
---------0-0--0-0--0-0|---------0-0--0-0--0-0-|---------0-0--0-0--0-0|--------|


----------------|-----------------------|--------------------------|----------|
----------------|-----------------------|--------------------------|----------|
-7--------------|-5-5-5-5---------------|--------------------------|----9-----|
-7--------------|-5-5-5-5---------------|-5---------------------5-5|-0--------|
-5--------------|-3-3-3-3---------------|-5---------------------5-5|-0--7/----|
---0-0--0-0--0-0|---------0-0--0-0--0-0\|-5---------------------5-5|-0--------|
                                          And so we end the chapter

-------|--------------------------|--------------|-------------------------|--|
-------|--------------------------|--------------|-------------------------|--|
-10--12|--------------------------|--------------|-3---------5-------------|--|
-------|-5------------------------|--0---------/-|-3---------5-------------|--|
-8-/-10|-5--------------------\---|--0---------/-|-1---------3-------------|--|
-------|-5--------------------\---|--0---------/-|-------------------------|--|
         And let the stage lights   fade           I have seen you on the

--------------|---------------------|--------------|--------------------------|
--------------|---------------------|--------------|--------------------------|
-7----5---3---|-3---------5---------|-7---5----3---|-3--------------5---------|
-7----5---3---|-3---------5---------|-7---5----3---|-3--------------5---------|
-5----3---1---|-1---------3---------|-5---3----1---|-1--------------3---------|
--------------|---------------------|--------------|--------------------------|
 edge of dawn   Felt you here before you were born   Balanced your dreams

----------|-----------------|-------------------------------------|-----------|
----------|-----------------|-------------------------------------|-----------|
----------|--7----5----3----|-------------------------------------|---2---0---|
----------|--7----5----3----|-----------------------------------0-|-----0-----|
----------|--5----3----1----|-------------------------------------|-----------|
----------|-----------------|-------------------------------------|-----------|
 upon the   Edge of thorns..  But I don't think about you anymore

--------------------------|--------------------------------|------------------|
--------------------------|--------------------------------|------------------|
--------------------------|-2---0--------------------------|-2---0------------|
-0-3-0-2-0-2-3-2-0^--0-0-0|---0---0-3-0-2-0-2-3-2-0^--0-0-0|---0---0-3-0-2-0--|
--------------------------|--------------------------------|------------------|
--------------------------|--------------------------------|------------------|


---------------|---------------------------------|----------------------------|
---------------|---------------------------------|----------------------------|
---------------|-2---0---------------------------|-2---0----------------------|
-2-3-2-0--0-0-0|---0---0-3-0-2-0-2-3-2-0^--0-0-0-|---0---0-3-0-2-0-2-3-2-0^---|
---------------|---------------------------------|----------------------------|
---------------|---------------------------------|----------------------------|
                                                  (whole band comes in)

------|--------------------------------|-------------------------------|------|
------|--------------------------------|-------------------------------|------|
------|-2---0--------------------------|-2---0-------------------------|-2----|
-0-0-0|---0---0-3-0-2-0-2-3-2-0^--0-0-0|---0---0-3-0-2-0-2-3-2-0^-0-0-0|---0--|
------|--------------------------------|-------------------------------|------|
------|--------------------------------|-------------------------------|------|


---------------------------|--------------|--------|--------------|-----------|
---------------------------|--------------|--------|--------------|-----------|
-0-------------------------|-5----2--5----|--------|-5----2--5----|-----------|
---0-3-0-2-0-2-3-2-0^-0-0-0|-5----2--5--0-|-0------|-5----2--5--0-|-0---------|
---------------------------|-3----0--3--0-|-0------|-3----0--3--0-|-0---------|
---------------------------|------------0-|-0------|------------0-|-0---------|
                            (Guitar solo)

-------------|---------|--------------|------------------------|--------------|
-------------|---------|--------------|------------------------|--------------|
-5---2--5--7-|--7------|-5----2--5----|------------------------|-7------------|
-5---2--5--7-|--7------|-5----2--5--0-|------------------------|-7------------|
-3---0--3--5-|--5------|-3----0--3--0-|------------------------|-5------------|
-------------|---------|------------0-|------------------------|--------------|
                                        (bass and leads break)

-----|------|------|-----|-------|----|-----|------------------------|--------|
-----|------|------|-----|-------|----|-----|------------------------|--------|
-9---|-10---|-12---|--7--|---9---|-10-|--12-|-14-12-10-9--14-12-10-9-|-14-12--|
-9---|-10---|-12---|--7--|---9---|-10-|--12-|-14-12-10-9--14-12-10-9-|-14-12--|
-7---|-8----|-10---|--5--|---7---|-8--|--10-|-12-10-8--7--12-10-8--7-|-12-10--|
-----|------|------|-----|-------|----|-----|------------------------|--------|


------------------|-----------|-----------------------|-----------------------|
------------------|-----------|-----------------------|-----------------------|
-10-9--14-12-10-9-|-2---------|-3-------5-------------|-7----5----3-----------|
-10-9--14-12-10-9-|-2---------|-3-------5-------------|-7----5----3-----------|
-8--7--12-10-8--7-|-0---------|-1-------3-------------|-5----3----1-----------|
------------------|-----------|-----------------------|-----------------------|
                                I have seen you on the edge of thorns

---------------------|--------------|-----------------------------|-----------|
---------------------|--------------|-----------------------------|-----------|
-3---------5---------|-7---5----3---|-3---------------5-----------|--7----5---|
-3---------5---------|-7---5----3---|-3---------------5-----------|--7----5---|
-1---------3---------|-5---3----1---|-1---------------3-----------|--5----3---|
---------------------|--------------|-----------------------------|-----------|
 Felt you here before you were born   Balanced your dreams upon the edge of

--------|-------------------------------------|-------------------------------|
--------|-------------------------------------|-------------------------------|
--3-----|-------------------------------------|-7-7-7-7-----------------------|
--3-----|-------------------------------------|-7-7-7-7-----------------------|
--1-----|-------------------------------------|-5-5-5-5-----------------------|
--------|-------------------------------------|---------0-0--0-0--0-0---------|
 thorns   But I don't think about you anymore

----------------------|--------------------|----------------------------------|
----------------------|--------------------|----------------------------------|
-5-5-5-5--------------|-5/7-7-7------------|-5-5-5-5--------------------------|
-5-5-5-5--------------|-5/7-7-7------------|-5-5-5-5--------------------------|
-3-3-3-3--------------|-3/5-5-5------------|-3-3-3-3--------------------------|
---------0-0--0-0--0-0|---------0-0-0-0-0-0|---------0-0--0-0--0-0------------|
                 (play riff till end of song)

------------------------------------------------------------------------------|
------------------------------------------------------------------------------|
-7----------------------------------------------------------------------------|
-7----------------------------------------------------------------------------|
-5----------------------------------------------------------------------------|
------------------------------------------------------------------------------|
 (final chord)





Comments


Popular Savatage tabs & chords
Devastation Bass Tabs
Legions Bass Tabs
Prelude To Madness Bass Tabs
Believe Chords
All That I Bleed Tabs
Awaken Tabs
Fountain Of Youth Tabs
Jesus Saves Tabs
Lights Out Tabs
Mozart And Madness Tabs


Song lyrics



↑ Back to top | Tablatures and chords are parodies/interpretations of the original songs. You may use it for private study, scholarship, research or language learning purposes only
© 2014 AZChords.com Contact us | Privacy policy | DMCA | Add/correct tabs | Request tabs | Top 50 tabs