» » »

Awaken Bass tabs (ver.1)

Artists:  A B C D E F G H I J K L M N O P Q R S T U V W X Y Z # 

Awaken Bass tabs (ver.1)

Savatage
Rating:
0/5 (0 votes)

Hard to play? Try these video lessons and learn fast.
                *************
Bass Verse (plays 2x alone with drums)
*************

|----------------------------------------------------------------------------|
|----------------------------------------------------------------------------|
|-------------------------------4-----------------3-----------------0-----0--|
|-0-----1-----2-----0-----2-----------0-----2-----------0-----2--------------|


|----------------------------------------------------------------------------|
|-------------------------------4--------------------------------------------|
|-------------------------------------------------3-----------------2-----2--|
|-0-----1-----2-----0-----2-----------0-----2-----------0-----2--------------|
            
Hard to play? Try these video lessons and learn fast. | Correct




comments powered by Disqus
↑ Back to top | Tablatures and chords are parodies/interpretations of the original songs. You may use it for private study, scholarship, research or language learning purposes only