>
 >
Edge Of Thorns 3

Edge Of Thorns 3 Guitar Tabs

Savatage - Edge Of Thorns 3 chords, tabs, tablatures, lyrics

Guitar lessons | Add/correct | Request | Top 50 tabs Artists:  A B C D E F G H I J K L M N O P Q R S T U V W X Y Z 0-9

Edge Of Thorns 3 Guitar Tabs – Savatage

CD, Sheet music, Poster

Do you like Edge Of Thorns 3? Share with your friends now
Bass TabsChordsTabsTabs v2Tabs v3Ukulele
--20b-------17-18--18-----|--17~------------------------------|
--------------------------|---------13b--13--10---------------|
--------------------------|---------------------12r--10h12p10-|
--------------------------|-----------------------------------|
--------------------------|-----------------------------------|
--------------------------|-----------------------------------|

---------------------------------|
---------------------------------|
--9~-------9--10--12--12b--12p10-|
---------------------------------|
---------------------------------|
---------------------------------|

---------------------------------------------------13-----------|
------------10-13p10----10-13p10----10-13p10----10-----10-13p10-|
------10-12b---------12b---------12b---------12b----------------|
--12------------------------------------------------------------|
----------------------------------------------------------------|
----------------------------------------------------------------|

---------------13-----------13b---13--10-13p10-|
------10-13p10-----10-13p10--------------------|
--12b------------------------------------------|
-----------------------------------------------|
-----------------------------------------------|
-----------------------------------------------|

------------------------------------------------|
--13p10-----------------------------------------|
--------12-12r-10-------------------------------|
------------------12-10-------------------------|
------------------------12-10----10r-8-10p8-----|
------------------------------13----------------|

--13-10----10-------------------------------------------------------------|
--------13----13-10-13-10----10-------------------------------------------|
--------------------------12----12-10-12-10----10-------------------------|
--------------------------------------------12----12-10-12-10----10-------|
--------------------------------------------------------------12----12-10-|
--------------------------------------------------------------------------|

--------------------|------------------|
--------------------|------------------|
--------------------|------------------|
--10b---------------|------------------|
--------------------|------------------|
--------------------|------------------|

-----------10-13-10----------------10-13-10----------------10-12-13-12-10-------|
--10-12-13----------13-12-10-12-13----------13-12-10-12-13----------------13-12-|
--------------------------------------------------------------------------------|
--------------------------------------------------------------------------------|
--------------------------------------------------------------------------------|
--------------------------------------------------------------------------------|

--13b--------------15r|------13--12--13--12----------|------------------------|
----------------------|----------------------15--13~-|------------------------|
----------------------|------------------------------|------------------------|
----------------------|------------------------------|------------------10-12-|
----------------------|------------------------------|---------------12-x-----|
----------------------|------------------------------|------------------------|

-----------------------------|-----------------------------|
-----------------------------|--10~------------------------|
--10~------------------------|--10~------------------10----|
--10~------12/--x------10----|--10~------12/--x---12-10-12-|
-----------12/--x---12-x--12-|-----------12/--x------------|
-----------------------------|-----------------------------|

--------------------------------------------------------------------------------|
--------------------------------------------------------------------------------|
--13-10-------------12-10-------------13-10-------------12-10-------------13-10-|
--------12-10-12-10-------12-10-12-10-------12-10-12-10-------12-10-12-10-------|
--------------------------------------------------------------------------------|
--------------------------------------------------------------------------------|

--------------------|------------------------|-------20-------------|
--------------------|------------------------|----------------------|
--------------------|--13--------12----10----|--7-------------------|
--12~---------------|--x---------x-----x-----|--x--------------0----|
--12~---------------|--11--------10----8-----|--5-------------------|
--------------------|------------------------|----------------------|

------------------12h13-|--12~-----------15r--13-|
--13~-------------------|------------------------|
------------------------|------------------------|
------------------------|------------------------|
------------------------|------------------------|
------------------------|------------------------|

--15~-----13p12-13p12----------------|----------------------------------|
----------------------13p12----------|----------------------------------|
----------------------------12-10/9--|----10--12--12r-10h12p10-9~-------|
-------------------------------------|----------------------------------|
-------------------------------------|----------------------------------|
-------------------------------------|----------------------------------|

----------------------------------------------------------------12h13-13/15~---|
----------------------------12-13p12h13----12h13h15p13p12h13h15----------------|
--10-12p10-12p10-9h10h12/14-------------14-------------------------------------|
-------------------------------------------------------------------------------|
-------------------------------------------------------------------------------|
-------------------------------------------------------------------------------|

-----13p12-13p12----------13p12-13p12-------------|
--15-------------15p13h15-------------13~---------|
--------------------------------------------------|
--------------------------------------------------|
--------------------------------------------------|
--------------------------------------------------|

--20b------17--18--18------18p|--17~---15b-15b-15~---------|
------------------------------|----------------------------|
------------------------------|----------------------------|
------------------------------|----------------------------|
------------------------------|----------------------------|
------------------------------|----------------------------|





Comments


Popular Savatage tabs & chords
24 Hours Ago Bass Tabs
Awaken Bass Tabs
Hall Of The Mountain King Bass Tabs
Sammy And Tex Bass Tabs
Alone You Breath Chords
All That I Bleed Tabs
He Carves His Stone Tabs
Last Dawn 1 Tabs
Mozart And Madness Tabs
Watching You Fall Ukulele


Song lyrics



↑ Back to top | Tablatures and chords are parodies/interpretations of the original songs. You may use it for private study, scholarship, research or language learning purposes only
© 2014 AZChords.com Contact us | Privacy policy | DMCA | Add/correct tabs | Request tabs | Top 50 tabs