» » »

Samba Pa Ti Bass tabs (ver.2)

Artists:  A B C D E F G H I J K L M N O P Q R S T U V W X Y Z # 

Samba Pa Ti Bass tabs (ver.2)

Santana
Rating:
0/5 (0 votes)

Hard to play? Try these video lessons and learn fast.
                
By Santana

In the Style of HepCatz

Bass Tablature


*In the key of G

**Bass comes in at 0:02. 

G-----------------|-----------------|-----------------|-----------------|
D-----------------|-----------------|-----------------|-----------------|
A-----------------|--------2--------|-----------------|--------0--------|
E--------3--------|-----------------|--------0--------|-----------------|



G-----------------|-----------------|-----------------|-----------------|
D-----------------|-----------------|-----------------|-----------------|
A-----------------|--------2--------|-----------------|--------0--------|
E--------3--------|-----------------|--------0--------|-----------------|



G-----------------|-----------------|-----------------|-----------------|
D--------0--------|-----------------|--------0--------|-----------------|
A-----------------|--------0--------|-----------------|-----------------|
E-----------------|-----------------|-----------------|-----------------|


G-----------------|-----------------|-----------------|-----------------|
D-----------------|-----------------|-----------------|--------0--------|
A--------0--------|--------2--------|--------0--------|-----------------|
E-----------------|-----------------|-----------------|-----------------|


G-----------------|-----------------|-----------------|-----------------|
D-----------------|-----------------|-----------------|-----------------|
A-----------------|--------2--------|-----------------|--------0--------|
E--------3--------|-----------------|--------0--------|-----------------|



G-----------------|-----------------|-----------------|-----------------|
D-----------------|-----------------|-----------------|-----------------|
A-----------------|--------2--------|-----------------|-----------------|
E--------3--------|-----------------|--------0--------|--------0--------|


G-----------------|-----------------|-----------------|-----------------|
D-----------------|--------0--------|-----------------|-----------------|
A--------0--------|-----------------|--------0--------|-----------------|
E-----------------|-----------------|-----------------|-----------------|



G-----------------|-----------------|-----------------|-----------------|
D-----------------|-----------------|-----------------|--------0--------|
A--------0--------|--------2--------|--------0--------|-----------------|
E-----------------|-----------------|-----------------|-----------------|



G-----------------|-----------------|-----------------|-----------------|
D-----------------|-----------------|-----------------|--------0--------|
A-----------------|--------2--------|-----2-----0-----|-----------------|
E--------3--------|-----------------|-----------------|-----------------|



G-----------------|-----------------|-----------------|-----------------|
D-----------------|-----------------|-----------------|--------0--------|
A-----------------|--------2--------|-----2-2-0-0-----|-----------------|
E--------3--------|-----------------|-----------------|-----------------|

G-----------------|-----------------|-----------------|-----------------|
D-----------------|-----------------|-----------------|-----------------|
A-----------------|--------2--------|--------1--------|--------0--------|
E--------3--------|-----------------|-----------------|-----------------|


G-----------------|-----------------|-----------------|-----------------|
D-----------------|-----------------|-----------------|--------0--------|
A-----------------|--------2--------|-----2-2-0-0-----|-----------------|
E--------3--------|-----------------|-----------------|-----------------|


G-----------------|-----------------|-----------------|-----------------|
D-----------------|-----------------|-----------------|-----------------|
A-----------------|-0-0-0-0-0-0-0-0-|-----------------|-0-0-0-0-0-0-0-0-|
E-3-3-3-3-3-3-3-3-|-----------------|-3-3-3-3-3-3-3-3-|-----------------|


G-----------------|-----------------|-----------------|-----------------|
D-----------------|-----------------|-----------------|-----------------|
A-----------------|-0-0-0-0-0-0-0-0-|-----------------|-0-0-0-0-0-0-0-0-|
E-3-3-3-3-3-3-3-3-|-----------------|-3-3-3-3-3-3-3-3-|-----------------|


G-----------------|-----------------|-----------------|-----------------|
D-----------------|-----------------|-----------------|-----------------|
A-----------------|-0-0-0-0-0-0-0-0-|-----------------|-0-0-0-0-0-0-0-0-|
E-3-3-3-3-3-3-3-3-|-----------------|-3-3-3-3-3-3-3-3-|-----------------|


G-----------------|-----------------|-----------------|-----------------|
D-----------------|-----------------|-----------------|-----------------|
A-----------------|-0-0-0-0-0-0-0-0-|-----------------|-0-0-0-0-0-0-0-0-|
E-3-3-3-3-3-3-3-3-|-----------------|-3-3-3-3-3-3-3-3-|-----------------|


G-----------------|-----------------|-----------------|-----------------|
D-----------------|-----------------|-----------------|-----------------|
A-----------------|-0-0-0-0-0-0-0-0-|-----------------|-0-0-0-0-0-0-0-0-|
E-3-3-3-3-3-3-3-3-|-----------------|-3-3-3-3-3-3-3-3-|-----------------|


G-----------------|-----------------|-----------------|-----------------|
D-----------------|-----------------|-----------------|-----------------|
A-----------------|-0-0-0-0-0-0-0-0-|-----------------|-0-0-0-0-0-0-0-0-|
E-3-3-3-3-3-3-3-3-|-----------------|-3-3-3-3-3-3-3-3-|-----------------|

G-----------------|-----------------|-----------------|-----------------|
D-----------------|-----------------|-----------------|-----------------|
A-----------------|-0-0-0-0-0-0-0-0-|-----------------|-0-0-0-0-0-0-0-0-|
E-3-3-3-3-3-3-3-3-|-----------------|-3-3-3-3-3-3-3-3-|-----------------|


G-----------------|-----------------|-----------------|-----------------|
D-----------------|-----------------|-----------------|-----------------|
A-----------------|-0-0-0-0-0-0-0-0-|-----------------|-0-0-0-0-0-0-0-0-|
E-3-3-3-3-3-3-3-3-|-----------------|-3-3-3-3-3-3-3-3-|-----------------|


G-----------------|-----------------|-----------------|-----------------|
D-----------------|-----------------|-----------------|-----------------|
A-----------------|-0-0-0-0-0-0-0-0-|-----------------|-0-0-0-0-0-0-0-0-|
E-3-3-3-3-3-3-3-3-|-----------------|-3-3-3-3-3-3-3-3-|-----------------|


G-----------------|-----------------|-----------------|-----------------|
D-----------------|-----------------|-----------------|-----------------|
A-----------------|-0-0-0-0-0-0-0-0-|-----------------|-0-0-0-0-0-0-0-0-|
E-3-3-3-3-3-3-3-3-|-----------------|-3-3-3-3-3-3-3-3-|-----------------|
            
Hard to play? Try these video lessons and learn fast. | Correct




comments powered by Disqus
↑ Back to top | Tablatures and chords are parodies/interpretations of the original songs. You may use it for private study, scholarship, research or language learning purposes only