» » »

Flor D Luna Moonflower Tabs (ver.1)

Artists:  A B C D E F G H I J K L M N O P Q R S T U V W X Y Z # 

Flor D Luna Moonflower Tabs (ver.1)

Santana
Rating:
0/5 (0 votes)

Hard to play? Try these video lessons and learn fast.
                FLOR D'LUNA (MOONFLOWER)
                             CARLOS SANTANA

This is the basic guitar melody. I have not tabbed the faster parts and
I'm not sure about the first sections being in 3/4 and then changing to
4/4, but I can't work out how else the structure works. Any corrections

(Listen to the track to get all Carlos's bends, hammer on's, pull off's, 
slides, vibrato's, etc. I'd be here until domesday trying to tab them!)

Part 1 (Play twice)
                                                                 
E-------||----------10--|--8----------|--r--r--r--|--10p8------|--------
B-------||------10------|-----11--10--|--e--e--e--|--------11--|--------
G---3:--||*--7----------|-------------|--s--s--s--|------------|--------
D---4:--||*-------------|-------------|--t--t--t--|------------|--------
A-------||--------------|-------------|-----------|------------|--------
D-------||--------------|-------------|-----------|------------|--------
                                                                        

                                                                        
E----------|-----------|------------|---------8--|---------10--|--------
B---10--8--|--------8--|--------10--|--10h11-----|--11p10------|--------
G----------|--9h10-----|--10p9------|------------|-------------|--------
D----------|-----------|------------|------------|-------------|--------
A----------|-----------|------------|------------|-------------|--------
D----------|-----------|------------|------------|-------------|--------
                                                                        

                                                                        
E------------------|--------------|--------------|-------------|--------
B-------10--10h11--|--10------10--|----------10--|----------8--|--------
G---12-------------|------12------|--10--12------|--12--10-----|--------
D------------------|--------------|--------------|-------------|--------
A------------------|--------------|--------------|-------------|--------
D------------------|--------------|--------------|-------------|--------
                                                                        

                                          Part 2 (Play once)                       
E-------------|------------|--r--r--r---||--------------|------|--------
B----------8--|------------|--e--e--e---||--10--11--13--|--15--|--------
G---9--10-----|--10--6--7--|--s--s--s--*||--------------|------|--------
D-------------|------------|--t--t--t--*||--------------|------|--------
A-------------|------------|------------||--------------|------|--------
D-------------|------------|------------||--------------|------|--------
                                                                        

                                                                        
E---13--12--10h12--|------------|------------|---------------|----------
B------------------|--13h15p13--|--11p10--8--|--------8--10--|----------
G------------------|------------|------------|--9h10---------|----------
D------------------|------------|------------|---------------|----------
A------------------|------------|------------|---------------|----------
D------------------|------------|------------|---------------|----------
                                                                        

                                                                        
E--------------|--------------|------|--15--13--12--13h15--|------------
B---10h11--10--|--10--11--13--|--15--|---------------------|------------
G--------------|--------------|------|---------------------|------------
D--------------|--------------|------|---------------------|------------
A--------------|--------------|------|---------------------|------------
D--------------|--------------|------|---------------------|------------
                                                                        

                                                                        
E---10h12--10h12----------|--------------------|------|------------|----
B-----------------15--13--|------13h15--13h15--|--13--|--11p10--8--|----
G-------------------------|--14----------------|------|------------|----
D-------------------------|--------------------|------|------------|----
A-------------------------|--------------------|------|------------|----
D-------------------------|--------------------|------|------------|----
                                                                        

                            Part 3 (Not strictly just guitar)                                            
E------------------|------||------------5--------|--------6--------|----
B---------8--------|------||---------6-----6--6--|--5--8-----8--5--|----
G---9h10-----10--6h|--7--*||--4:--7--------------|-----------------|----
D------------------|-----*||--4:-----------------|-----------------|----
A------------------|------||---------------------|-----------------|----
D------------------|------||---------------------|-----------------|----
                                                                        

                                      (Guitar)                                  
E---------5--------|--------6--------|----------|-----------------------
B------6-----6--6--|--5--8-----8--5--|--10--10--|-----------------------
G---7--------------|-----------------|----------|-----------------------
D------------------|-----------------|----------|-----------------------
A------------------|-----------------|----------|-----------------------
D------------------|-----------------|----------|-----------------------
                                                                        

                                                                        
E-------------------|------10-----|------------------|------------------
B---8--8--11--8--11p|--10------10p|--8--8--11--8--11p|------------------
G-------------------|-------------|------------------|------------------
D-------------------|-------------|------------------|------------------
A-------------------|-------------|------------------|------------------
D-------------------|-------------|------------------|------------------
                                                                        

                                                                        
E-------10------|-----------------------|---------------||--------------
B---10------10--|--8--6--6--6--6--6--8--|--6-----6------||--------------
G---------------|-----------------------|-----7-----7--*||--------------
D---------------|-----------------------|--------------*||--------------
A---------------|-----------------------|---------------||--------------
D---------------|-----------------------|---------------||--------------
                                                                        



==                       TABLATURE EXPLANATION                        ==

----------                ----------                ----t---
----5h8--- Hammeron       ----(8)--- Ghost          ----6--- Tap
----------                ---------- Note           --------
----5p8--- Pulloff        ----------                --------

----------                ----------                -----p--
----5/8--- Slide Up       -----x---- Dead           -----7-- Pop
----------                ---------- Note           --s-----
----5\8--- Slide Down     ----------                --5----- Slap 

----------                ||------|| Repeat         --------
----5~~~-- Vibrato        ||*----*||                ---5^--- Bend
----------                ||*----*||                --------
----------                ||------||                --------

----------                ----------                --------
-4:------- Time           ----------                --------
-4:------- Signature      ----------                --------
----------                ----------                --------

Rhythm:
  w = whole note            W = dotted whole
  h = half note             H = dotted half
  q = quarter note          Q = dotted quarter
  e = eighth note           E = dotted eighth
  s = sixteenth note        S = dotted sixteenth
  t = 32nd note             T = dotted 32nd
  x = 64th note             X = dotted 64th
  ^ = triplet

==               Created with BUCKET O' TAB for Windows               ==
            
Hard to play? Try these video lessons and learn fast. | Correct




comments powered by Disqus
↑ Back to top | Tablatures and chords are parodies/interpretations of the original songs. You may use it for private study, scholarship, research or language learning purposes only