» » »

Samba Pa Ti Bass tabs (ver.1)

Artists:  A B C D E F G H I J K L M N O P Q R S T U V W X Y Z # 

Samba Pa Ti Bass tabs (ver.1)

Santana
Rating:
0/5 (0 votes)

Hard to play? Try these video lessons and learn fast.
                This song it´s like that

G-----------------------------
D-----------------------------
A----------2-------------0----
E---3-------------0-----------

G-----------------------------
D-----------------------------
A----------2-------------0----
E---3-------------0-----------

G----------------------
D----------------------
A---5-------------5----
E----------5-----------

G-----------------------------
D-----------------------------
A------------------------5----
E---5------7------5-----------

G-----------------------------
D-----------------------------
A----------2-------------0----
E---3-------------0-----------

G-----------------------------
D-----------------------------
A----------2-------------0----
E---3-------------0-----------

G----------------------
D----------------------
A---5-------------5----
E----------5-----------

G-----------------------------
D-----------------------------
A------------------------5----
E---5------7------5-----------

G----------------------------------------------
D----------------------------------------------
A----------2------2-1-0------5-----------------
E---3-------------------------------0-0-3-0----

G----------------------------------------------
D----------------------------------------------
A----------2------2-1-0------5-----------------
E---3-------------------------------0-0-3-0----

This play to the song finish

G-------------------------------------------
D-------------------------------------------
A-------------------------------------------
E---3--3-3-3-3-3-3--0--5--5-5-5-5-5-5--0----
            
Hard to play? Try these video lessons and learn fast. | Correct




comments powered by Disqus
↑ Back to top | Tablatures and chords are parodies/interpretations of the original songs. You may use it for private study, scholarship, research or language learning purposes only