» » »

Sandwich, Procrastinator Bass tabs (ver.2)

Artists:  A B C D E F G H I J K L M N O P Q R S T U V W X Y Z # 

Procrastinator Bass tabs (ver.2)

Sandwich Tabs
 Rating:
4/5 (4 votes)
Procrastinator lessons Tabs too difficult? Try these video lessons and learn fast
1
                e2 n u 3rd tab kuh...

Procrastinator - Sandwich

00:07 (intro&verse)
G|--------------------|
D|--------------------|12x
A|--------------------|
E|-0-0000000000--5--3-|

00:42/43 (chorus)
G|---------------------------|---------------------------|
D|---------------------------|---------------------------|2x
A|-3-333-0-000---------------|-3-333-0-000-2-222-3-2-3-2-|
E|-------------3-333-5533553-|---------------------------|

01:07 (pre-verse)
G|--------------------|
D|--------------------|3x then pause after the 3rd time
A|--------------------| only the guitar will play
E|-0-0000000000--5--3-|

01:19 (verse)
G|--------------------|
D|--------------------|8x still no changes
A|--------------------|
E|-0-0000000000--5--3-|

01:43 (chorus)
G|---------------------------|---------------------------|
D|---------------------------|---------------------------|2x
A|-3-333-0-000---------------|-3-333-0-000-2-222-3-2-3-2-|
E|-------------3-333-5533553-|---------------------------|

02:07 (verse)
G|--------------------|
D|--------------------|do not play the tab until 02:20
A|--------------------|then play it 4x
E|-0-0000000000--5--3-|

02:32 (chorus)
G|---------------------------|---------------------------|
D|---------------------------|---------------------------|2x
A|-3-333-0-000---------------|-3-333-0-000-2-222-3-2-3-2-|
E|-------------3-333-5533553-|---------------------------|

03:08 (outro) diskarte nyuh n yn kung paano nyuh ggwin ..^^,.
G|---------------------|  |----|
D|---------------------|8x|----|
A|---------------------|  |----|
E|-0-0000000--77-55-33-|  |-0~-|

paki-rate nln tnx ^_^ more power....
            
Submit corrections

comments powered by Disqus
↑ Back to top | Sandwich Bass for Procrastinator. Lyrics for acoustic guitar and electric guitar. 1 Tablatures and chords are parodies/interpretations of the original songs. You may use it for private study, scholarship, research or language learning purposes only