» » »

Procrastinator Tabs (ver.1)

Artists:  A B C D E F G H I J K L M N O P Q R S T U V W X Y Z # 

Procrastinator Tabs (ver.1)

Sandwich
Rating:
4/5 (4 votes)

Hard to play? Try these video lessons and learn fast.
                SANDWICH
 Marks The Spot

Gtr.1:Diego Castillo (rhythm)(EADGBe)
Gtr.2:Mong Alcaraz (Lead) (EADGBe)

Intro:

Gtr.1
E|------------------|
B|------------------|
G|------------------| 7x
D|------------------|
A|------------------|
E|0-000000000-5-3---|

Gtr.2
E|-----------------------------------|
B|-----------------------------------|
G|----4-2-0----4-2-----4-2-0---------|
D|-2-5-----2-5-----2-5-------2-5-4-2-|
A|-----------------------------------|
E|-----------------------------------|

Verse:


Gtr.1
E|------------------|
B|------------------|
G|------------------| 
D|------------------|
A|------------------|
E|0-000000000-5-3---|

Gtr.2(repeat This after every line)
E|-----------------|
B|-----------------|
G|----4-2-0----4-2-|
D|-2-5-----2-5-----|
A|-----------------|
E|-----------------|

Before Chorus:
Gtr.2
E|---------------------------|
B|---------------------------|
G|------44-22-00----44-22-00-|
D|---------------------------|
A|---------------------------|
E|---------------------------|

Chorus:
Both Guitars:
E|--------------------------|--------|
B|--------------------------|--------|
G|5-555-2-222---------2x----|--------|
D|5-555-2-222-5-555---------|-999999-|
A|3-333-0-000-5-555---------|-999999-|
E|------------3-333---------|-777777-|

Repeat Intro
Repeat Verse
Repeat Chorus

Bridge:
Gtr.1:
E|------------------|
B|------------------|
G|------------------| 2x
D|------------------|
A|------------------|
E|0-000000000-5-3---|

Repeat Verse
Repeat Chorus

Outro:
Gtr.1:
E|------------------|
B|------------------|
G|------------------| 10x
D|------------------|
A|------------------|
E|0-000000000-5-3---|
            
Hard to play? Try these video lessons and learn fast. | Correct




comments powered by Disqus
↑ Back to top | Tablatures and chords are parodies/interpretations of the original songs. You may use it for private study, scholarship, research or language learning purposes only