» » »

Procrastinator Bass tabs (ver.1)

Artists:  A B C D E F G H I J K L M N O P Q R S T U V W X Y Z # 

Procrastinator Bass tabs (ver.1)

Sandwich
Rating:
4/5 (2 votes)

Hard to play? Try these video lessons and learn fast.
                SANDWICH
Marks The Spot

Intro/verse:
G|------------------|
D|------------------|
A|------------------| 10x
E|-0-000000000-5-3--|



Chorus
G|-------------------|
D|-------------------|
A|-3-333-0-000-------|
E|-------------3-333-|

G|-------------------|
D|-------------------|
A|-3-333-0-000-------|
E|-------------3-333-|

G|-------------------|
D|-------------------|
A|-3-333-0-000-------|
E|-------------3-333-|

G|-------------------|
D|-------------------|
A|-3-333-0-000-------|
E|-------------3-333-|


Repeat Intro
Repeat Verse
Repeat Chorus
Repeat verse
Repeat Chorus
Repeat Intro
            
Hard to play? Try these video lessons and learn fast. | Correct




comments powered by Disqus
↑ Back to top | Tablatures and chords are parodies/interpretations of the original songs. You may use it for private study, scholarship, research or language learning purposes only