» » »

Photocopy Chords (ver.2)

Artists:  A B C D E F G H I J K L M N O P Q R S T U V W X Y Z # 

Photocopy Chords (ver.2)

Sandwich
Rating:
0/5 (0 votes)

Hard to play? Try these video lessons and learn fast.
                Standard Tuning
(Any Comments and sudgestion just PM me in my YM. :) )

Legend:

 Slide = /


Pasensya na kayo sa chords na to fist timer lang hehehe paki sabayan nalang yung rhythm 
hindi kayo maguluhan.

Intro;
1st Chord         2nd Chord
E--------------  E-------5--------|
A--------2-----  A-------5--------|
D--------2-----  D-------7--------|
G--------2-----  G-------5--------|
b--------3-----  b-------6--------|
e--------2-----  e-------5--------|

Stanza I. (4 Times)

E--------------  E-------5--------|
A--------2-----  A-------5--------|
D--------2-----  D-------7--------|
G--------2-----  G-------5--------|
b--------3-----  b-------6--------|
e--------2-----  e-------5--------|

Chorus;

E---------------------5----------------------3----------------2--------|
A----2----------------7----------------------5----------------4--------|
D----4----------------7----------------------5----------------4--------|
G----4----------------6----------------------4----------------2--------|
b----3----------------5----------------------5----------------2--------|
e----2----------------5----------------------5----------------2--------|
  Oohh! i take to the end if i could i would share life is a photograph


Stanza II. (4 Times)

E--------------  E-------5--------|
A--------2-----  A-------5--------|
D--------2-----  D-------7--------|
G--------2-----  G-------5--------|
b--------3-----  b-------6--------|
e--------2-----  e-------5--------|

Solo Guitar:

E-------------------------------------------------------|
A-------------------------------------------------------|
D-----10-------10--------10-----------------------------|
G---------10--------10--------10-------------10---------|
b-------8----8----8---8-----8----8--10/11-8-----8-------|
e-------------------------------------------------------|


End.


Thanks sa girl na nag inspire sakin na magaral pa ng gitara at pati sa banda ko (PANDA) 
konting jam session lang and mga kalokohan yung ginagawa natin pag inanasar natin si 
eh masaya parin. Thanks

para sayo to RONA.
            
Hard to play? Try these video lessons and learn fast. | Correct




comments powered by Disqus
↑ Back to top | Tablatures and chords are parodies/interpretations of the original songs. You may use it for private study, scholarship, research or language learning purposes only