» » »

Sandwich, Photocopy Tabs (ver.1)

Artists:  A B C D E F G H I J K L M N O P Q R S T U V W X Y Z # 

Photocopy Tabs (ver.1)

Sandwich Tabs
 Rating:
4/5 (4 votes)
Photocopy lessons Tabs too difficult? Try these video lessons and learn fast
1
                -----------  =  -----------|
-----------  =  -----------|
-----------  =  -----------|
-----------  =  -----------|
-----7-----  =  ------9----|
--5--------  =  ---7-------|
    A                B

A-B-A-B

paulit-ulit lng 2 sa buong kanta

solo:
-------------------------------------------------|
-------------------------------------------------|
------9--7--9-----9--7--9----9--7--9s12--9--7--9-|
---7-----------7----------7----------------------|
-------------------------------------------------|
-------------------------------------------------|

tpos paulit-ulit lng 2...

dali lng yan

kaw na bhala sa struming nyan..pknggan mo nlng sa musc
            
Submit corrections

comments powered by Disqus
↑ Back to top | Sandwich Tabs for Photocopy. Lyrics for acoustic guitar and electric guitar. 1 Tablatures and chords are parodies/interpretations of the original songs. You may use it for private study, scholarship, research or language learning purposes only