» » »

Photocopy Chords (ver.1)

Artists:  A B C D E F G H I J K L M N O P Q R S T U V W X Y Z # 

Photocopy Chords (ver.1)

Sandwich
Rating:
0/5 (0 votes)

Hard to play? Try these video lessons and learn fast.
                PHOTOCOPY by Sandwich

Intro: Bm-A (pakinggan niyo 'yung strumming)

 Bm
Requesting consent to use all these limbs
 A
To embrace whatever's left of December
 Bm
Reworking the script to make a point
 A
When these eyes begin to witness murder

 Bm		 A
I'd take to the air
		    G
If I could I would share
	   F#
Lies in a photograph

 Bm
I'm counting the cost, acting selfless no doubt
     A
To unite altogether the worth of December
   Bm
Recollecting the terms, the pictures and dates
       A
Understand when eternity's over

    Bm
Combining the facts, I review all the tapes
   A
A little numb to feel older
        Bm
Try cascading the words
		A
To unravel the truth

 Bm		 A
I'd take to the air
		    G
If I could I would share
	   F#
Lies in a photograph

 Bm		  A
I'd like to play fair
		    G
If I could I would share
	      F#
Knives and a killing smile

eto muna bago 'yung "don't believe"... mga dalawang beses...

e|---------------------------------------------------|
B|---------------------------------------------------|
G|--------------------------------------14-----------|
D|-----16-14-16----16-14-16----16-14-16----16-14-16--|
A|--14----------14----------14-----------------------|
E|---------------------------------------------------|

tapos kapag "don't believe" na... eto naman... tapos sabayan niyo nung chorus chords (Bm-A-G-F#)...

e|---------------------------------------------------|
B|---------------------------------------------------|
G|--------------14----------------------14-----------|
D|-----16-14-16----16-14-16----16-14-16----16-14-16--|
A|--14----------------------14-----------------------|
E|---------------------------------------------------|

Don't believe
Everything
Everything you feel

Don't believe
Everything
Everything you see

Don't believe
Everything
Everything you see

Don't believe
Everything
Everything you see


sensya... hindi ko pa alam 'yung ibang parts eh... lalo na 'yung mga lead... pasensya 
comment lang kung may mali... pero 'wag niyo 'kong awayin ha...

kat...
            
Hard to play? Try these video lessons and learn fast. | Correct




comments powered by Disqus
↑ Back to top | Tablatures and chords are parodies/interpretations of the original songs. You may use it for private study, scholarship, research or language learning purposes only