» » »

Sammy Hagar, Heavy Metal Tabs (ver.1)

Artists:  A B C D E F G H I J K L M N O P Q R S T U V W X Y Z # 

Heavy Metal Tabs (ver.1)

Sammy Hagar Tabs
 Rating:
3.4/5 (11 votes)
Heavy Metal lessons Tabs too difficult? Try these video lessons and learn fast
                -------------------------------------------------------------------------------
                             HEAVY METAL--SAMMY HAGAR
-------------------------------------------------------------------------------

Tuning:standard

INTRO
e|---------------------------------------------------------------------------|
B|---------------------------------------------------------------------------|
G|--5----7-7-5---7-----------------------------------------------------------|
D|--7----7-7-7---7-----------------------------------------------------------|
A|--7----7-7-7---5-----------------------------------------------------------|
E|--5----5-5-5---------------------------------------------------------------|

VERSE                            
e|---------------------------------------------------------------------------|
B|---------------------------------------------------------------------------|
G|-----------------------------7---------------------------7-----------------|
D|--7----------------------7---7---7-------------------7---7-----------------|
A|--7----------3p-0--------7---5---7--------3p-0-------7---5-----------------|
E|--5--0-3h-5h------3p-0---5-------5---0-3h------3p-0--5---------------------|
                                
e|---------------------------------------------------------------------------|
B|---------------------------------------------------------------------------|
G|-----------------------------7---------------------------7-----------------|
D|--7----------------------7---7---7-------------------7---7-----------------|
A|--7----------3p-0--------7---5---7--------3p-0-------7---5-----------------|
E|--5--0-3h-5h------3p-0---5-------5---0-3h------3p-0--5---------------------|
                               
e|---------------------------------------------------------------------------|
B|---------------------------------------------------------------------------|
G|------------------------------7--------------------------------------------|
D|--2-2-2-2-2-2-2-2-2--5-5-5-5--7--------------------------------------------|
A|--2-2-2-2-2-2-2-2-2--5-5-5-5--5--------------------------------------------|
E|--0-0-0-0-0-0-0-0-0--3-3-3-3-----------------------------------------------|
                                 
e|---------------------------------------------------------------------------|
B|---------------------------------------------------------------------------|
G|---------------------------7-------------------------------7---------------|
D|--7--------------------7---7---7-----------------------7---7---------------|
A|--7--------3p-0--------7---5---7------------3p-0-------7---5---------------|
E|--5--0-3h-------3p-0---5-------5---0-3h--5h------3p-0--5-------------------|

e|---------------------------------------------------------------------------|
B|---------------------------------------------------------------------------|
G|---------------------------7-----------------------------------------------|
D|--7--------------------7---7-----------------------------------------------|
A|--7--------3p-0--------7---5-----------------------------------------------|
E|--5--0-3h-------3p-0---5---------------------------------------------------|

PRECHORUS
e|------------3-3-----------3-3-----------3-3--------------------------------|
B|------------3-3-----------3-3-----------3-3--------------------------------|
G|---------------------------------------------------------------------------|
D|---------------------------------------------2-2--5-5----------------------|
A|---------------------------------------------2-2--5-5----------------------|
E|--0-0-2-2-3-----0-0-2-2-3-----0-0-2-2-3------0-0--3-3----------------------|

CHORUS
e|---------------------------------------------------------------------------|
B|---------------------------------------------------------------------------|
G|-------------------7-----7-------------------------------------------------|
D|--7-7-7-7-7-7-7-7--7--5--7--5--4--5----------------------------------------|
A|--7-7-7-7-7-7-7-7--5--5--5--5--4--5----------------------------------------|
E|--5-5-5-5-5-5-5-5-----3-----3--2--3----------------------------------------|

e|---------------------------------------------------------------------------|
B|---------------------------------------------------------------------------|
G|-------------------7-----7-------------------------------------------------|
D|--7-7-7-7-7-7-7-7--7--5--7--5--4--5----------------------------------------|
A|--7-7-7-7-7-7-7-7--5--5--5--5--4--5----------------------------------------|
E|--5-5-5-5-5-5-5-5-----3-----3--2--3----------------------------------------|

e|---------------------------------------------------------------------------|
B|---------------------------------------------------------------------------|
G|-------------------7-----7-------------------------------------------------|
D|--7-7-7-7-7-7-7-7--7--5--7--5--4--5--3-------------------------------------|
A|--7-7-7-7-7-7-7-7--5--5--5--5--4--5--3-------------------------------------|
E|--5-5-5-5-5-5-5-5-----3-----3--2--3--1-------------------------------------|





| /  slide up
| \  slide down
| h  hammer-on
| p  pull-off
| ~  vibrato
| +  harmonic
| x  Mute note
===============================================================================
            
Submit corrections

comments powered by Disqus
↑ Back to top | Sammy Hagar Tabs for Heavy Metal. Lyrics for acoustic guitar and electric guitar. Tablatures and chords are parodies/interpretations of the original songs. You may use it for private study, scholarship, research or language learning purposes only