>
 >
Heavy Metal

Heavy Metal Bass Tabs

Sammy Hagar - Heavy Metal chords, tabs, tablatures, lyrics

Guitar lessons | Add/correct | Request | Top 50 tabs Artists:  A B C D E F G H I J K L M N O P Q R S T U V W X Y Z 0-9

Heavy Metal Bass Tabs – Sammy Hagar

CD, Sheet music, Poster

Do you like Heavy Metal? Share with your friends now
Bass TabsTabsTabs v2Tabs v3
-----------------------------------------------------------------------------


-----------------------------------------------------------------------------

Tuning: standard tuning

=============================================================================


Bass



     Q    H        Q       Q    E  H        E     Q    Q    S S S S S S S S
G||---------------------|----------------------|----------------------------|
D||---------------------|----------------------|----------------------------|
A||---------------------|----------5--------L--|------------------0-4-0-----|
E||--5------------------|--5-------------------|--5-----------0-3-------3-0-|


  Q    E  H        E     Q    Q    E  S S S S S S    Q    E  H        E
----------------------|---------------------------|----------------------|
----------------------|---------------------------|----------------------|
----------5--------L--|-----------------0-4-0-----|----------5--------L--|
--5-------------------|--5------------3-------3-0-|--5-------------------|


  Q    Q    S S S S S S S S    Q    E  H        E     Q    Q    E  S S S S S S
--------------------------|----------------------|--------------------------|
--------------------------|----------------------|--------------------------|
----------------0-4-0-----|----------5--------L--|-----------------0-4-0----|
-5----------0-3-------3-0-|--5-------------------|--5------------3-------30-|


  Q    E  H        E     Q    Q    Q    E  E      E  E  E  E  E  E  Q
----------------------|------------------------|--------------------------|
----------------------|------------------------|--------------------------|
----------5--------L--|-----------------7--L\--|--------------------5\----|
--5-------------------|--0----0----0-----------|--0--3--3--3--3-----------|


  Q    Q    E  S S S S S S    Q    E  H        E     Q    Q    S S S S S S S S
-------------------------|----------------------|---------------------------|
-------------------------|----------------------|---------------------------|
---------------0-4-0-----|----------5--------L--|------------------0-4-0----|
5------------3-------3-0-|--5-------------------|--5-----------0-3-------3-0|


  Q    E  H        E     Q    Q    E  S S S S S S    Q    E  H        E
----------------------|---------------------------|----------------------|
----------------------|---------------------------|----------------------|
----------5--------L--|-----------------0-4-0-----|----------5--------L--|
--5-------------------|--5------------3-------3-0-|--5-------------------|


  E  S E  S Q     E  Q       E  S E  S Q     E  Q
--------------------------|--------------------------|
--------------------------|--------------------------|
------------------2--5----|------------------2--5----|
--0--0-2--0-3/------------|--0--0-2--0-3/------------|


  E  S E  S Q     E  Q       E  E  Q    E  E  Q       E  E  E  E  E  E  E  E
-------------------------|------------------------|-----------------------------|
--------------------------|------------------------|----------------------------|
------------------2--5----|------------------------|-----------------3--4--5----|
--0--0-2--0-3/------------|--0--0-------3--3-------|--5--5--5--5--5-------------|


  Q    Q    E  E  E  E     Q    Q    Q     E  E     Q    E  Q.     E  E
------------------------|------------------------|------------------------|
------------------------|------------------------|------------------------|
--L------------3--4--5--|--L---------------------|------------------------|
-------3----------------|-------3----L\-------2--|--L-------3---------3s--|


  E  E  E  E  E  E  E  E     Q    Q    E  E  E  E     Q    Q    Q     E  E
--------------------------|------------------------|------------------------|
--------------------------|------------------------|------------------------|
-----------------3--4--5--|--L------------3--4--5--|--L---------------------|
--5--5--5--5--5-----------|-------3----------------|-------3----L\-------2--|


  Q    E  Q.     E  E      E  E  E  E  E  E  E  E     Q    Q    E  E  E  E
------------------------|--------------------------|------------------------|
------------------------|--------------------------|------------------------|
------------------------|-----------------3--4--5--|--L------------3--4--5--|
--L-------3---------3s--|--5--5--5--5--5-----------|-------3----------------|


  Q    Q    Q     E  E     Q    E  Q.     E  E     W
------------------------|-----------------------|-------------------|
------------------------|-----------------------|-------------------|
--L---------------------|-----------------------|-------------------|
-------3----L\-------2--|--L-------3---------3--|--1----------------|


  W                   Q    Q    E  S S S S S S    Q    E  H        E
-------------------|---------------------------|----------------------|
-------------------|---------------------------|----------------------|
-------------------|-----------------0-4-0-----|----------5--------L--|
--L----------------|--5------------3-------3-0-|--5-------------------|


  Q    Q    S S S S S S S S    Q    E  H        E     Q    Q    E  S S S S S S
--------------------------|----------------------|--------------------------|
--------------------------|----------------------|--------------------------|
----------------0-4-0-----|----------5--------L--|-----------------0-4-0----|
-5----------0-3-------3-0-|--5-------------------|--5------------3-------3-0|


  Q    E  H        E     Q    Q    S S S S S S S S    Q    E  H        E
----------------------|----------------------------|----------------------|
----------------------|----------------------------|----------------------|
----------5--------L--|------------------0-4-0-----|----------5--------L--|
--5-------------------|--5-----------0-3-------3-0-|--5-------------------|


  Q    Q    Q    E  E      E  E  E  E  E  E  Q        Q    Q    E  S S S S S S
----------------------|--------------------------|--------------------------|
----------------------|--------------------------|--------------------------|
---------------7--L\--|--------------------5-----|-----------------0-4-0----|
-0---0----0-----------|--0--3--3--3--3-----------|--5------------3-------3-0|


  Q    E  H        E     Q    Q    S S S S S S S S    Q    E  H        E
----------------------|----------------------------|----------------------|
----------------------|----------------------------|----------------------|
----------5--------L--|------------------0-4-0-----|----------5--------L--|
--5-------------------|--5-----------0-3-------3-0-|--5-------------------|


  Q    Q    E  S S S S S S    Q    E  H        E     E  S E  S Q     E  Q
-------------------------|----------------------|--------------------------|
-------------------------|----------------------|--------------------------|
---------------0-4-0-----|----------5--------L--|------------------2--5----|
-5-----------3-------3-0-|--5-------------------|--0--0-2--0-3/------------|


  E  S E  S Q     E  Q       E  S E  S Q     E  Q       E  E  Q    E  E  Q
--------------------------|--------------------------|----------------------|
--------------------------|--------------------------|----------------------|
------------------2--5----|------------------2--5----|----------------------|
--0--0-2--0-3/------------|--0--0-2--0-3------------|--0--0-------3--3------|


  E  E  E  E  E  E  E  E     Q    Q    E  E  E  E     Q    Q    Q     E  E
--------------------------|------------------------|------------------------|
--------------------------|------------------------|------------------------|
-----------------3--4--5--|--L------------3--4--5--|--L---------------------|
--5--5--5--5--5-----------|-------3----------------|-------3----L\-------2--|


  Q    E  Q.     E  E      E  E  E  E  E  E  E  E     Q    Q    E  E  E  E
------------------------|--------------------------|------------------------|
------------------------|--------------------------|------------------------|
------------------------|-----------------3--4--5--|--L------------3--4--5--|
--L-------3---------3s--|--5--5--5--5--5-----------|-------3----------------|


  Q    Q    Q     E  E     Q    E  Q.     E  E      E  E  E  E  E  E  E  E
------------------------|------------------------|--------------------------|
------------------------|------------------------|--------------------------|
--L---------------------|------------------------|-----------------3--4--5--|
-------3----L\-------2--|--L-------3---------3s--|--5--5--5--5--5-----------|


  Q    Q    E  E  E  E     Q    Q    Q     E  E     Q    E  Q.     E  E
------------------------|------------------------|-----------------------|
------------------------|------------------------|-----------------------|
--L------------3--4--5--|--L---------------------|-----------------------|
-------3----------------|-------3----L\-------2--|--L-------3---------3--|


  W                   W
----------------|-------------------|-------|-------|-------|-------|-------|
----------------|-------------------|-------|-------|-------|-------|-------|
----------------|-------------------|-------|-------|-------|-------|-------|
-1--------------|--L----------------|-------|-------|-------|-------|-------|


          E  E  E  E  E  E  E  E     E  H        Q    E
-------|--------------------------|----------------------|
-------|--------------------------|----------------------|
-------|--------------------------|--------------5-------|
-------|--5--5--5--5--5--5--5--5--|--5--3-------------3--|


  E  E  E  E  E  E  E  E     E  E  E  E  E  E  E  E
--------------------------|--------------------------|
--------------------------|--------------------------|
--------------------------|--------------------------|
--5--5--5--5--5--5--5--5--|--5--5--5--5--5--5--5--5--|


  E  E  E  E  E  E  E  E     E  E  E  E  E  E  E  E
--------------------------|--------------------------|
--------------------------|--------------------------|
--------------------------|--------------------------|
--5--5--5--5--5--5--5--5--|--5--5--5--5--5--5--5--5--|


  E  E  E  E  E  E  E  E     E  E  E  E  E  E  E  E     Q.     H        E
--------------------------|--------------------------|---------------------|
--------------------------|--------------------------|---------------------|
--------------------------|--------------------------|------------------5--|
--5--5--5--5--5--5--5--5--|--5--5--5--5--5--5--5--1--|--L------3-----------|


  Q.     H        E     E  E  E  E  E  E  E  E     E  E  E  E  E  E  E  E
---------------------|--------------------------|--------------------------|
---------------------|--------------------------|--------------------------|
--L------3-----------|--------------------------|--------------------------|
------------------5--|--5--5--5--5--5--5--5--5--|--5--5--5--5--5--5--5--5--|


  E  E  E  E  E  E  E  E     E  E  E  E  E  E  E  E
--------------------------|--------------------------|
--------------------------|--------------------------|
--------------------------|--------------------------|
--5--5--5--5--5--5--5--5--|--5--5--5--5--5--5--5--5--|


  E  E  E  E  E  E  E  E     E  E  E  E  E  E  E  E     Q.     H        E
--------------------------|--------------------------|---------------------|
--------------------------|--------------------------|---------------------|
--------------------------|--------------------------|------------------5--|
--5--5--5--5--5--5--5--5--|--5--5--5--5--5--5--5--1--|--L------3-----------|


  Q.     H        E     E  E  E  E  E  E  E  E     E  E  E  E  E  E  E  E
---------------------|--------------------------|--------------------------|
---------------------|--------------------------|--------------------------|
--L------3-----------|--------------------------|--------------------------|
------------------5--|--5--5--5--5--5--5--5--5--|--5--5--5--5--5--5--5--5--|


  E  E  E  E  E  E  E  E     E  E  E  E  E  E  E  E
--------------------------|--------------------------|
--------------------------|--------------------------|
--------------------------|--------------------------|
--5--5--5--5--5--5--5--5--|--5--5--5--5--5--5--5--5--|


  E  E  E  E  E  E  E  E     E  E  E  E  E  E  E  E     Q    Q    H
--------------------------|--------------------------|---------------------|
--------------------------|--7--5--------------------|---------------------|
--------------------------|--------7--5--3--2--------|---------------------|
--5--5--5--5--5--5--5--5--|--------------------5--3--|--1----1-------------|


  Q    Q    H           E  E  E  E  E  E  E  E     Q    Q    E  E  E  E
---------------------|--------------------------|------------------------|
---------------------|--------------------------|-------5----------------|
---------------------|-----------------3--4--5--|--L------------3--4--5--|
--3----3-------------|--5--5--5--5--5-----------|------------------------|


  Q    Q    Q     E  E     Q    E  Q.     E  E      E  E  E  E  E  E  E  E
------------------------|------------------------|--------------------------|
-------5----L\----------|------------------------|--------------------------|
--L---------------------|------------------------|-----------------3--4--5--|
---------------------2--|--L-------3---------3s--|--5--5--5--5--5-----------|


  Q    Q    E  E  E  E     Q    Q    Q     E  E     Q    E  Q.     E  E
------------------------|------------------------|------------------------|
-------5----------------|-------5----L\----------|------------------------|
--L------------3--4--5--|--L---------------------|------------------------|
------------------------|---------------------2--|--L-------3---------3s--|


  E  E  E  E  E  E  E  E     Q    Q    E  E  E  E     Q    Q    Q     E  E
--------------------------|------------------------|------------------------|
--------------------------|-------5----------------|-------5----L\----------|
-----------------3--4--5--|--L------------3--4--5--|--L---------------------|
--5--5--5--5--5-----------|------------------------|---------------------2--|


  Q    E  Q.     E  E      E  E  E  E  E  E  E  E     Q    Q    E  E  E  E
------------------------|--------------------------|------------------------|
------------------------|--------------------------|-------5----------------|
------------------------|-----------------3--4--5--|--L------------3--4--5--|
--L-------3---------3s--|--5--5--5--5--5-----------|------------------------|


  Q    Q    Q     E  E     Q    E  Q.     E  E      E  E  E  E  E  E  E  E
------------------------|------------------------|--------------------------|
-------5----L\----------|------------------------|--------------------------|
--L---------------------|------------------------|-----------------3--4--5--|
---------------------2--|--L-------3---------3s--|--5--5--5--5--5-----------|


  Q    Q    E  E  E  E     Q    Q    Q     E  E     Q    E  Q.     E  E
------------------------|------------------------|------------------------|
------------------------|------------------------|------------------------|
--L------------3--4--5--|--L---------------------|------------------------|
-------3----------------|-------3----L\-------2--|--L-------3---------3s--|


  E  E  E  E  E  E  E  E     Q    Q    E  E  E  E     Q    Q    Q     E  E
--------------------------|------------------------|------------------------|
--------------------------|------------------------|------------------------|
-----------------3--4--5--|--L------------3--4--5--|--L---------------------|
--5--5--5--5--5-----------|-------3----------------|-------3----L\-------2--|


  Q    E  Q.     E  E      E  E  E  E  E  E  E  E     Q    Q    E  E  E  E
------------------------|--------------------------|------------------------|
------------------------|--------------------------|------------------------|
------------------------|-----------------3--4--5--|--L------------3--4--5--|
--L-------3---------3s--|--5--5--5--5--5-----------|-------3----------------|


  Q    Q    Q     E  E     Q    E  Q.     E  E     E  E  E  E  E  E  E  E
------------------------|-----------------------|--------------------------|
------------------------|-----------------------|--------------------------|
--L---------------------|-----------------------|-----------------3--4--5--|
-------3----L\-------2--|--L-------3---------3--|--5--5--5--5--5-----------|


  Q    Q    E  E  E  E     Q    Q    Q     E  E     Q    E  Q    Q    E
------------------------|------------------------|-----------------------||
------------------------|------------------------|-----------------------||
--L------------3--4--5--|--L---------------------|-----------------------||
-------3----------------|-------3----L\-------2--|--2-------3----5-------||




Duration Legend
---------------
W - whole
H - half
Q - quarter
E - 8th
S - 16th
T - 32nd
X - 64th
. - note dotted
|-n-|  - n-tuplets


Tablature Legend
----------------
L - tied note
x - dead note
g - grace note
(n) - ghost note
> - accentuded note
NH - natural harmonic
AH - artificial harmonic
TH - tapped harmonic
SH - semi harmonic
PH - pitch harmonic
h - hammer on
p - pull off
b - bend
br - bendRelease
pb - preBend
pbr - preBendRelease
brb - bendReleaseBend
\n/ - tremolo bar dip
\n - tremolo bar dive
-/n - tremolo bar Release up
/n\ - tremolo bar inverted dip
/n - tremolo bar return
-\n - tremolo bar Release down
S - shift slide
s - legato slide
/ -  slide into from below or out of upwards
\ -  slide into from above or out of downwards
~ - vibrato
W - wide vibrato
tr - trill
TP - tremolo picking
T - tapping
S - slap
P - pop
< - fade in
^ - brush up
v - brush down





Comments


Popular Sammy Hagar tabs & chords
Baby's On Fire Bass Tabs
I Can't Drive 5 Chords
Things've Changed Chords
Dreams Tabs
Right On Right Tabs
There's Only One Way To Rock 1 Tabs
Back Into You Ukulele
Both Sides Now Ukulele
Eagles Fly Ukulele
I Cant Drive 55 Ukulele


Song lyrics



↑ Back to top | Tablatures and chords are parodies/interpretations of the original songs. You may use it for private study, scholarship, research or language learning purposes only
© 2014 AZChords.com Contact us | Privacy policy | DMCA | Add/correct tabs | Request tabs | Top 50 tabs