>
 >
Baby's On Fire

Baby's On Fire Guitar Tabs

Sammy Hagar - Baby's On Fire chords, tabs, tablatures, lyrics

Guitar lessons | Add/correct | Request | Top 50 tabs Artists:  A B C D E F G H I J K L M N O P Q R S T U V W X Y Z 0-9

Baby's On Fire Guitar Tabs – Sammy Hagar

CD, Sheet music, Poster

Do you like Baby's On Fire? Share with your friends now
Bass TabsTabs
-----------------------------------------------------------------------------
                                  
            
-----------------------------------------------------------------------------

Tuning: standard tuning

=============================================================================

      
Guitar 1



                PM PM    PM PM PM PM       PM PM    PM PM PM PM  
             E  E  E  E  E  E  E  E     E  E  E  E  E  E  E  E   
E||-------|--------------------------|--------------------------|
B||-------|--5--------7--------------|--8--------7--------------|
G||-------|--6--------7--------------|--7--------7--------------|
D||-------|--7--------7--------------|--9--------7--------------|
A||-------|-----0--0-----0--0--0--0--|-----0--0-----0--0--0--0--|
E||-------|--------------------------|--------------------------|


     PM PM    PM PM PM PM       PM PM    PM PM PM PM  
  E  E  E  E  E  E  E  E     E  E  E  E  E  E  E  E   
--------------------------|--------------------------|
--5--------7--------------|--8--------7--------------|
--6--------7--------------|--7--------7--------------|
--7--------7--------------|--9--------7--------------|
-----0--0-----0--0--0--0--|-----0--0-----0--0--0--0--|
--------------------------|--------------------------|


      PM PM    PM PM PM PM       PM PM    PM PM PM PM  
   E  E  E  E  E  E  E  E     E  E  E  E  E  E  E  E   
---------------------------|--------------------------|
--10--------7--------------|--8--------7--------------|
---9--------7--------------|--7--------7--------------|
---7--------7--------------|--9--------7--------------|
------0--0-----0--0--0--0--|-----0--0-----0--0--0--0--|
---------------------------|--------------------------|


     PM PM    PM PM PM PM       PM PM    PM PM PM                         
  E  E  E  E  E  E  E  E     E  E  E  E  E  E  E  E     W                 
--------------------------|--------------------------|-------------------|
--5--------7--------------|--8--------7--------------|-------------------|
--6--------7--------------|--7--------7-----------2--|--L----------------|
--7--------7--------------|--9--------7-----------2--|--L----------------|
-----0--0-----0--0--0--0--|-----0--0-----0--0--0--0--|--L----------------|
--------------------------|--------------------------|-------------------|


                         PM PM    PM PM PM PM       PM PM    PM PM PM     
  W                   E  E  E  E  E  E  E  E     E  E  E  E  E  E  E  E   
-------------------|--------------------------|--------------------------|
-------------------|--5--------7--------------|--8--------7--------------|
--L----------------|--6--------7--------------|--7--------7-----------2--|
--L----------------|--7--------7--------------|--9--------7-----------2--|
--L----------------|-----0--0-----0--0--0--0--|-----0--0-----0--0--0--0--|
-------------------|--------------------------|--------------------------|


                                             PM PM    PM PM PM PM  
  W                   W                   E  E  E  E  E  E  E  E   
-------------------|-------------------|--------------------------|
-------------------|-------------------|--5--------7--------------|
--L----------------|--L----------------|--6--------7--------------|
--L----------------|--L----------------|--7--------7--------------|
--L----------------|--L----------------|-----0--0-----0--0--0--0--|
-------------------|-------------------|--------------------------|


     PM PM    PM PM PM                                                  
  E  E  E  E  E  E  E  E     W                   H        E  E  E   E   
--------------------------|-------------------|--------------3------2--|
--8--------7-----------5--|--L----------------|--L-----------3------3--|
--7--------7-----------4--|--L----------------|--L--------L--2--2~--2--|
--9--------7-----------2--|--L----------------|--L--------L---------0--|
-----0--0-----0--0--0--2--|--L----------------|--L--------L------------|
--------------------------|-------------------|------------------------|


                                                PM PM    PM PM PM PM  
  W                   Q.     Q.     E  E     E  E  E  E  E  E  E  E   
--L----------------|----------------------|--------------------------|
--L----------------|----------------------|--5--------7--------------|
--L----------------|----------------------|--6--------7--------------|
--L----------------|----------------------|--7--------7--------------|
-------------------|--3------2------3--2--|-----0--0-----0--0--0--0--|
-------------------|----------------------|--------------------------|


     PM PM    PM PM PM PM       PM PM    PM PM PM PM  
  E  E  E  E  E  E  E  E     E  E  E  E  E  E  E  E   
--------------------------|--------------------------|
--8--------7--------------|--5--------7--------------|
--7--------7--------------|--6--------7--------------|
--9--------7--------------|--7--------7--------------|
-----0--0-----0--0--0--0--|-----0--0-----0--0--0--0--|
--------------------------|--------------------------|


     PM PM    PM                                                   
  E  E  E  E  E  E  E  E     W                   W                 
--------------------------|-------------------|-------------------|
--8--------7--------------|-------------------|-------------------|
--7--------7-----------2--|--L----------------|--L----------------|
--9--------7-----------2--|--L----------------|--L----------------|
-----0--0-----0--3--2--0--|--L----------------|--L----------------|
--------------------------|-------------------|-------------------|


     PM PM    PM PM PM PM       PM PM    PM PM PM                         
  E  E  E  E  E  E  E  E     E  E  E  E  E  E  E  E     W                 
--------------------------|--------------------------|-------------------|
--5--------7--------------|--8--------7--------------|-------------------|
--6--------7--------------|--7--------7-----------2--|--L----------------|
--7--------7--------------|--9--------7-----------2--|--L----------------|
-----0--0-----0--0--0--0--|-----0--0-----0--0--0--0--|--L----------------|
--------------------------|--------------------------|-------------------|


                         PM PM    PM PM PM PM       PM PM    PM PM PM     
  W                   E  E  E  E  E  E  E  E     E  E  E  E  E  E  E  E   
-------------------|--------------------------|--------------------------|
-------------------|--5--------7--------------|--8--------7-----------5--|
--L----------------|--6--------7--------------|--7--------7-----------4--|
--L----------------|--7--------7--------------|--9--------7-----------2--|
--L----------------|-----0--0-----0--0--0--0--|-----0--0-----0--0--0--2--|
-------------------|--------------------------|--------------------------|


  W                   H        E  E  E   E     W                 
-------------------|--------------3------2--|--L----------------|
--L----------------|--L-----------3------3--|--L----------------|
--L----------------|--L--------L--2--2~--2--|--L----------------|
--L----------------|--L--------L---------0--|--L----------------|
--L----------------|--L--------L------------|-------------------|
-------------------|------------------------|-------------------|


                            PM PM    PM PM PM PM       PM PM    PM PM PM PM  
  Q.     Q.     E  E     E  E  E  E  E  E  E  E     E  E  E  E  E  E  E  E   
----------------------|--------------------------|--------------------------|
----------------------|--5--------7--------------|--8--------7--------------|
----------------------|--6--------7--------------|--7--------7--------------|
----------------------|--7--------7--------------|--9--------7--------------|
--3------2------3--2--|-----0--0-----0--0--0--0--|-----0--0-----0--0--0--0--|
----------------------|--------------------------|--------------------------|


     PM PM    PM PM PM PM       PM PM    PM PM PM PM                          
  E  E  E  E  E  E  E  E     E  E  E  E  E  E  E  E     Q.     E  E  E  Q     
--------------------------|--------------------------|-----------------------|
--5--------7--------------|--8--------7--------------|---------3-----3-------|
--6--------7--------------|--7--------7--------------|--0------2-----2--2----|
--7--------7--------------|--9--------7--------------|--0------0-----0--2----|
-----0--0-----0--0--0--0--|-----0--0-----0--0--0--0--|------------------0----|
--------------------------|--------------------------|--3--------------------|


  E  E  E  E  E  E  Q       Q.     E  E  E  Q       E  E  E  E  E  E  E  E   
-------------------------|-----------------------|--------------------------|
-----2--3-----2--3-------|---------3-----3-------|-----2--3-----3-----2-----|
--L--2--2-----2--2-------|--0------2-----2--2----|--L--2--2-----2-----2-----|
--L--2--4-----2--4-------|--0------0-----0--2----|--L--2--4-----4-----2-----|
--L--0--0-----0--0-------|------------------0----|--L--0--0-----0-----0-----|
-------------------------|--3--------------------|--------------------------|


  Q.     E  E  E  Q       Q    Q    Q    E  E     E  E  E  E  E  E   
-----------------------|-----------------------|--------------------|
---------3-----3-------|-----------------------|--------------------|
--0------2-----2-------|-----------------------|--------------------|
--0------0-----0--2----|-----------------------|--------------------|
------------------2----|-----------------------|--------------------|
--3---------------0----|--0----0----0----0--0--|--0--0--0-----------|


     PM PM    PM PM PM PM       PM PM    PM PM PM PM  
  E  E  E  E  E  E  E  E     E  E  E  E  E  E  E  E   
--------------------------|--------------------------|
--5--------7--------------|--8--------7--------------|
--6--------7--------------|--7--------7--------------|
--7--------7--------------|--9--------7--------------|
-----0--0-----0--0--0--0--|-----0--0-----0--0--0--0--|
--------------------------|--------------------------|


     PM PM    PM PM PM PM       PM PM    PM PM PM PM                           
  E  E  E  E  E  E  E  E     E  E  E  E  E  E  E  E     Q    E  E  Q    E  E   
--------------------------|--------------------------|------------------------|
--5--------7--------------|--8--------7--------------|------------------------|
--6--------7--------------|--7--------7--------------|--7-------7--5-------5--|
--7--------7--------------|--9--------7--------------|--7-------7--5-------5--|
-----0--0-----0--0--0--0--|-----0--0-----0--0--0--0--|--5-------5--3-------3--|
--------------------------|--------------------------|------------------------|


                                PM PM PM PM PM PM    PM PM PM PM              
  Q    E  E  Q    E  E     Q    E  E  E  E  E  E     E  E  E  E  E  E  E  E   
------------------------|-------------------------|--------------------------|
------------------------|-------------------------|--------------------------|
--7-------7--5----------|--2----------------------|--------------------------|
--7-------7--5-------5--|--2-------------------2--|--2--2--2--2--2--2--2--2--|
--5-------5--3-------5--|--0----0--0--0--0--0--0--|--0--0--0--0--0--0--0--0--|
---------------------3--|-------------------------|--------------------------|


                                                    PM PM PM PM PM PM PM PM  
  Q    E  E  Q    E  E     Q    E  E  Q    E  E     E  E  E  E  E  E  E  E   
------------------------|------------------------|--------------------------|
------------------------|------------------------|--------------------------|
--7-------7--5-------5--|--7-------7--5-------7--|--------------------------|
--7-------7--5-------5--|--7-------7--5-------7--|--9--9--9--9--9--9--9--9--|
--5-------5--3-------3--|--5-------5--3-------5--|--7--7--7--7--7--7--7--7--|
------------------------|------------------------|--------------------------|


  E  E  E  E  E  E  Q       E  E  H.              W                 
-------------------------|---------------------|-------------------|
-------------------------|---------------------|-------------------|
-------------------------|--2------------------|-------------------|
--9--9--9--9-------------|--2------------------|-------------------|
--7--7--7--7--7--5--3----|--0------------------|-------------------|
-------------------------|---------------------|-------------------|


     PM PM    PM PM PM PM       PM PM    PM PM PM                         
  E  E  E  E  E  E  E  E     E  E  E  E  E  E  E  E     W                 
--------------------------|--------------------------|-------------------|
--5--------7--------------|--8--------7--------------|-------------------|
--6--------7--------------|--7--------7-----------2--|--L----------------|
--7--------7--------------|--9--------7-----------2--|--L----------------|
-----0--0-----0--0--0--0--|-----0--0-----0--0--0--0--|--L----------------|
--------------------------|--------------------------|-------------------|


                         PM PM    PM PM PM PM       PM PM    PM PM PM     
  W                   E  E  E  E  E  E  E  E     E  E  E  E  E  E  E  E   
-------------------|--------------------------|--------------------------|
-------------------|--5--------7--------------|--8--------7--------------|
--L----------------|--6--------7--------------|--7--------7--------------|
--L----------------|--7--------7--------------|--9--------7-----------2--|
--L----------------|-----0--0-----0--0--0--0--|-----0--0-----0--0--0--2--|
-------------------|--------------------------|-----------------------0--|


  W                   H        E  E  E  E     W                 
-------------------|-----------------------|-------------------|
-------------------|--------------8--7-----|-------------------|
-------------------|--------------7--7--7--|--L----------------|
--L----------------|--L--------L--9-----7--|--L----------------|
--L----------------|--L--------L--------5--|--L----------------|
-------------------|-----------------------|-------------------|


                            PM PM    PM PM PM PM       PM PM    PM PM PM PM  
  Q.     Q.     E  E     E  E  E  E  E  E  E  E     E  E  E  E  E  E  E  E   
----------------------|--------------------------|--------------------------|
----------------------|--5--------7--------------|--8--------7--------------|
----------------------|--6--------7--------------|--7--------7--------------|
----------------------|--7--------7--------------|--9--------7--------------|
--3------2------3--2--|-----0--0-----0--0--0--0--|-----0--0-----0--0--0--0--|
----------------------|--------------------------|--------------------------|


     PM PM    PM PM PM PM       PM PM    PM PM PM PM  
  E  E  E  E  E  E  E  E     E  E  E  E  E  E  E  E   
--------------------------|--------------------------|
--5--------7--------------|--8--------7--------------|
--6--------7--------------|--7--------7--------------|
--7--------7--------------|--9--------7--------------|
-----0--0-----0--0--0--0--|-----0--0-----0--0--0--0--|
--------------------------|--------------------------|


     PM PM    PM PM PM PM       PM PM    PM PM PM PM  
  E  E  E  E  E  E  E  E     E  E  E  E  E  E  E  E   
--------------------------|--------------------------|
--5--------7--------------|--8--------7--------------|
--6--------7--------------|--7--------7--------------|
--7--------7--------------|--9--------7--------------|
-----0--0-----0--0--0--0--|-----0--0-----0--0--0--0--|
--------------------------|--------------------------|


     PM PM    PM PM PM PM       PM PM    PM PM PM PM  
  E  E  E  E  E  E  E  E     E  E  E  E  E  E  E  E   
--------------------------|--------------------------|
--5--------7--------------|--8--------7--------------|
--6--------7--------------|--7--------7--------------|
--7--------7--------------|--9--------7--------------|
-----0--0-----0--0--0--0--|-----0--0-----0--0--0--0--|
--------------------------|--------------------------|


     PM PM    PM PM PM PM       PM PM    PM PM PM PM  
  E  E  E  E  E  E  E  E     E  E  E  E  E  E  E  E   
--------------------------|--------------------------|
--5--------7--------------|--8--------7--------------|
--6--------7--------------|--7--------7--------------|
--7--------7--------------|--9--------7--------------|
-----0--0-----0--0--0--0--|-----0--0-----0--0--0--0--|
--------------------------|--------------------------|


     PM PM    PM PM PM PM       PM PM    PM PM PM PM  
  E  E  E  E  E  E  E  E     E  E  E  E  E  E  E  E   
--------------------------|--------------------------|
--5--------7--------------|--8--------7--------------|
--6--------7--------------|--7--------7--------------|
--7--------7--------------|--9--------7--------------|
-----0--0-----0--0--0--0--|-----0--0-----0--0--0--0--|
--------------------------|--------------------------|


     PM PM    PM PM PM PM       PM PM    PM PM PM PM  
  E  E  E  E  E  E  E  E     E  E  E  E  E  E  E  E   
--------------------------|--------------------------|
--5--------7--------------|--8--------7--------------|
--6--------7--------------|--7--------7--------------|
--7--------7--------------|--9--------7--------------|
-----0--0-----0--0--0--0--|-----0--0-----0--0--0--0--|
--------------------------|--------------------------|


     PM PM    PM PM PM PM       PM PM    PM PM PM PM   
  E  E  E  E  E  E  E  E     E  E  E  E  E  E  E  E    
--------------------------|--------------------------||
--5--------7--------------|--8--------7--------------||
--6--------7--------------|--7--------7--------------||
--7--------7--------------|--9--------7--------------||
-----0--0-----0--0--0--0--|-----0--0-----0--0--0--0--||
--------------------------|--------------------------||



=========================================================


Guitar 2



                PM PM    PM PM PM PM       PM PM    PM PM PM PM  
             E  E  E  E  E  E  E  E     E  E  E  E  E  E  E  E   
E||-------|--------------------------|--------------------------|
B||-------|--5--------7--------------|--8--------7--------------|
G||-------|--6--------7--------------|--7--------7--------------|
D||-------|--7--------7--------------|--9--------7--------------|
A||-------|-----0--0-----0--0--0--0--|-----0--0-----0--0--0--0--|
E||-------|--------------------------|--------------------------|


     PM PM    PM PM PM PM       PM PM    PM PM PM PM  
  E  E  E  E  E  E  E  E     E  E  E  E  E  E  E  E   
--------------------------|--------------------------|
--5--------7--------------|--8--------7--------------|
--6--------7--------------|--7--------7--------------|
--7--------7--------------|--9--------7--------------|
-----0--0-----0--0--0--0--|-----0--0-----0--0--0--0--|
--------------------------|--------------------------|


      PM PM    PM PM PM PM       PM PM    PM PM PM PM  
   E  E  E  E  E  E  E  E     E  E  E  E  E  E  E  E   
---9-----------------------|--------------------------|
--10--------7--------------|--8--------7--------------|
---9--------7--------------|--7--------7--------------|
------------7--------------|--9--------7--------------|
------0--0-----0--0--0--0--|-----0--0-----0--0--0--0--|
---------------------------|--------------------------|


     PM PM    PM PM PM PM       PM PM    PM PM PM                         
  E  E  E  E  E  E  E  E     E  E  E  E  E  E  E  E     W                 
--------------------------|--------------------------|-------------------|
--5--------7--------------|--8--------7--------------|-------------------|
--6--------7--------------|--7--------7-----------2--|--L----------------|
--7--------7--------------|--9--------7-----------2--|--L----------------|
-----0--0-----0--0--0--0--|-----0--0-----0--0--0--0--|--L----------------|
--------------------------|--------------------------|-------------------|


                         PM PM    PM PM PM PM       PM PM    PM PM PM     
  W                   E  E  E  E  E  E  E  E     E  E  E  E  E  E  E  E   
-------------------|--------------------------|--------------------------|
-------------------|--5--------7--------------|--8--------7--------------|
--L----------------|--6--------7--------------|--7--------7-----------2--|
--L----------------|--7--------7--------------|--9--------7-----------2--|
--L----------------|-----0--0-----0--0--0--0--|-----0--0-----0--0--0--0--|
-------------------|--------------------------|--------------------------|


                                             PM PM    PM PM PM PM  
  W                   W                   E  E  E  E  E  E  E  E   
-------------------|-------------------|--------------------------|
-------------------|-------------------|--5--------7--------------|
--L----------------|--L----------------|--6--------7--------------|
--L----------------|--L----------------|--7--------7--------------|
--L----------------|--L----------------|-----0--0-----0--0--0--0--|
-------------------|-------------------|--------------------------|


     PM PM    PM PM PM                                                  
  E  E  E  E  E  E  E  E     W                   H        E  E  E   E   
--------------------------|-------------------|------------------------|
--8--------7--------------|-------------------|--------------8---------|
--7--------7-----------9--|--L----------------|--L--------L--7------7--|
--9--------7-----------9--|--L----------------|--L--------L--7--7~--7--|
-----0--0-----0--0--0--7--|--L----------------|--L--------L------------|
-----------------------0--|--L----------------|--L--------L------------|


                         PM PM    PM PM             PM PM    PM PM PM PM  
  W                   E  E  E  E  E  E  E  E     E  E  E  E  E  E  E  E   
-------------------|--------------------------|--------------------------|
-------------------|--------------------------|--5--------7--------------|
--L----------------|--------------------------|--6--------7--------------|
--L----------------|--------------------------|--7--------7--------------|
-------------------|--3--3--3--2--2--2--3--2--|-----0--0-----0--0--0--0--|
-------------------|--------------------------|--------------------------|


     PM PM    PM PM PM PM       PM PM    PM PM PM PM  
  E  E  E  E  E  E  E  E     E  E  E  E  E  E  E  E   
--------------------------|--------------------------|
--8--------7--------------|--5--------7--------------|
--7--------7--------------|--6--------7--------------|
--9--------7--------------|--7--------7--------------|
-----0--0-----0--0--0--0--|-----0--0-----0--0--0--0--|
--------------------------|--------------------------|


     PM PM    PM                                                            
  E  E  E  E  E  E  E  E     W                   H        E   E   S S S  S  
--------------------------|-------------------|----------------------------|
--8--------7--------------|-------------------|----------------------------|
--7--------7-----------2--|--L----------------|----------------------------|
--9--------7-----------2--|--L----------------|----------------------------|
-----0--0-----0--3--2--0--|--L----------------|-----------------------3p-0-|
--------------------------|-------------------|--------------12\--3-5------|


                                   PH                       
  S  H        S E  S  S E     E    E  E  Q     E  S    E.   
---------------------------|-------------------------------|
---------------------------|-------------------8-----------|
---------------------------|-----<>5--7--7b-------7pbr-5---|
------------------------5--|--7----------------------------|
--3p-0--------L-3--5s-7----|-------------------------------|
---------------------------|-------------------------------|


  H.           Q       H.           E   E    
--------------------|-----------------------|
--------------------|------------------20---|
--L-----------------|------------------19b--|
--------------------|-----------------------|
--------------------|-----------------------|
--------------------|-----------------------|


   E     E    Q.       E    E    S     S  
-----------------------------------------|
---L----20---20-------20---20---20-------|
---Lpb--19b--19b------19b--19b--19pbr-17-|
-----------------------------------------|
-----------------------------------------|
-----------------------------------------|


   E.     S  S  S  E.      E     S  E   E      H.            Q     
-------------------------------------------|----------------------|
------------------20brb---------17-----17--|---L~-----------------|
--17br---15---------------19br-----19------|----------------------|
------------17-15--------------------------|----------------------|
-------------------------------------------|----------------------|
-------------------------------------------|----------------------|


                                                  PM PM    PM PM                
  H        E  E  E   E     W                   E  E  E  E  E  E  E  E           
------------------------|-------------------|--------------------------|-------|
--------------8---------|-------------------|--------------------------|-------|
--------------7------7--|--L----------------|--------------------------|-------|
--------------7--7~--7--|--L----------------|--------------------------|-------|
------------------------|-------------------|--3--3--3--2--2--2--3--2--|-------|
------------------------|-------------------|--------------------------|-------|


                          H         E  E  E  E      W                    
-------|-------|-------|-------------------------|----------------------|
-------|-------|-------|---------------------8b--|--Lpb~----------------|
-------|-------|-------|--7b--------L--7--5------|----------------------|
-------|-------|-------|-------------------------|----------------------|
-------|-------|-------|-------------------------|----------------------|
-------|-------|-------|-------------------------|----------------------|


  E  Q     S S S S S S E  E     H         E   E   E  E   
-----------------------------|--------------------------|
-----------------------------|---------------10--10-----|
-----5b----------------------|----------------9---9--9--|
-----------7-5---5---5-7--7--|--L~--------L-------------|
---------------7---7---------|--------------------------|
-----------------------------|--------------------------|


  Q     E   Q      E   E.    S     Q    Q    Q     E    E    
------------------10--10-------|------------------10b--10b--|
--------8--10b--------10br---8-|--10----8-------------------|
--9~---------------------------|-------------9--------------|
-------------------------------|----------------------------|
-------------------------------|----------------------------|
-------------------------------|----------------------------|


                                PM PM    PM PM PM PM  
   E    E    E   E   Q       E  E  E  E  E  E  E  E   
--10b--10s--22--22b-------|--------------------------|
--------------------------|--5--------7--------------|
--------------------------|--6--------7--------------|
--------------------------|--7--------7--------------|
--------------------------|-----0--0-----0--0--0--0--|
--------------------------|--------------------------|


     PM PM    PM PM PM PM       PM PM    PM PM PM PM  
  E  E  E  E  E  E  E  E     E  E  E  E  E  E  E  E   
--------------------------|--------------------------|
--8--------7--------------|--5--------7--------------|
--7--------7--------------|--6--------7--------------|
--9--------7--------------|--7--------7--------------|
-----0--0-----0--0--0--0--|-----0--0-----0--0--0--0--|
--------------------------|--------------------------|


     PM PM    PM PM PM PM                                                    
  E  E  E  E  E  E  E  E     Q    E  E  Q    E  E     Q    E  E  Q    E  E   
--------------------------|------------------------|------------------------|
--8--------7--------------|------------------------|------------------------|
--7--------7--------------|--7-------7--5-------5--|--7-------7--5----------|
--9--------7--------------|--7-------7--5-------5--|--7-------7--5-------5--|
-----0--0-----0--0--0--0--|--5-------5--3-------3--|--5-------5--3-------5--|
--------------------------|------------------------|---------------------3--|


       PM PM PM PM PM PM    PM PM PM PM                     
  Q    E  E  E  E  E  E     E  E  E  E  S  S  S S  S  S E   
-------------------------|---------------------------------|
-------------------------|---------------------------------|
--2----------------------|--------------7p-5p-0-7p-5p-0----|
--2----------------------|------------------------------7--|
--0----0--0--0--0--0--0--|--0--0--0--0---------------------|
-------------------------|---------------------------------|


                                                 PM PM PM PM PM PM PM PM  
  H         H           Q    E  E  Q    E  E     E  E  E  E  E  E  E  E   
---------------------|------------------------|--------------------------|
---------------------|------------------------|--------------------------|
--7~-----------------|--7-------7--5-------7--|--------------------------|
---------------------|--7-------7--5-------7--|--9--9--9--9--9--9--9--9--|
---------------------|--5-------5--3-------5--|--7--7--7--7--7--7--7--7--|
---------------------|------------------------|--------------------------|


  E  E  E  E  E  E  Q       E  E  H.              W                 
-------------------------|---------------------|-------------------|
-------------------------|---------------------|-------------------|
-------------------------|--2------------------|-------------------|
--9--9--9--9-------------|--2------------------|-------------------|
--7--7--7--7--7--5--3----|--0------------------|-------------------|
-------------------------|---------------------|-------------------|


     PM PM    PM PM PM PM       PM PM    PM PM PM                         
  E  E  E  E  E  E  E  E     E  E  E  E  E  E  E  E     W                 
--------------------------|--------------------------|-------------------|
--5--------7--------------|--8--------7--------------|-------------------|
--6--------7--------------|--7--------7-----------2--|--L----------------|
--7--------7--------------|--9--------7-----------2--|--L----------------|
-----0--0-----0--0--0--0--|-----0--0-----0--0--0--0--|--L----------------|
--------------------------|--------------------------|-------------------|


  W                    E    E   E  Q.      E  E     Q       E  Q    E  S  S E   
-------------------|--22b---L\-------------------|-----------------------------|
-------------------|-----------------------------|-----------------------------|
--L----------------|---------------7b------7--5--|--7pbr----5------------------|
--L----------------|-----------------------------|-------------7----L--7p-5----|
--L----------------|-----------------------------|--------------------------7--|
-------------------|-----------------------------|-----------------------------|


  W                   H        E  E  E  E     W                  
-------------------|-----------------------|--------------------|
-------------------|--------------8--7-----|--------------------|
-------------------|--------------7--7-----|--------------------|
-------------------|--------------9--------|--------------------|
--L----------------|--L-----------------5--|--L~----------------|
-------------------|-----------------------|--------------------|


  E  E  E  E  E  E  E  E                     H        E.   S  E  S S  
--------------------------|-------|-------|--------------------------|
--------------------------|-------|-------|--------------------------|
--------------------------|-------|-------|-----------7b---7b-7--5-7-|
--------------------------|-------|-------|--------------------------|
--3--3--3--2--2--2--3--2--|-------|-------|--------------------------|
--------------------------|-------|-------|--------------------------|


  S  E  S E  H         E       H.            Q         Q      E   Q     Q.      
----------------------------|---------------10b----|---Lpb----8--10b-----------|
----------------------------|----------------------|---------------------------|
--7p-5--7-5--7b--------Lpb--|----------------------|---------------------------|
----------------------------|----------------------|---------------------------|
----------------------------|----------------------|---------------------------|
----------------------------|----------------------|---------------------------|


-------|-------|-------|-------|-------|-------|-------|-------|-------|
-------|-------|-------|-------|-------|-------|-------|-------|-------|
-------|-------|-------|-------|-------|-------|-------|-------|-------|
-------|-------|-------|-------|-------|-------|-------|-------|-------|
-------|-------|-------|-------|-------|-------|-------|-------|-------|
-------|-------|-------|-------|-------|-------|-------|-------|-------|


-------||
-------||
-------||
-------||
-------||
-------||




Duration Legend
---------------
W - whole
H - half
Q - quarter
E - 8th
S - 16th
T - 32nd
X - 64th
. - note dotted
|-n-|  - n-tuplets


Tablature Legend
----------------
L - tied note
x - dead note
g - grace note
(n) - ghost note
> - accentuded note
NH - natural harmonic
AH - artificial harmonic
TH - tapped harmonic
SH - semi harmonic
PH - pitch harmonic
h - hammer on
p - pull off
b - bend
br - bendRelease
pb - preBend
pbr - preBendRelease
brb - bendReleaseBend
\n/ - tremolo bar dip
\n - tremolo bar dive
-/n - tremolo bar Release up
/n\ - tremolo bar inverted dip
/n - tremolo bar return
-\n - tremolo bar Release down
S - shift slide
s - legato slide
/ -  slide into from below or out of upwards
\ -  slide into from above or out of downwards
~ - vibrato
W - wide vibrato
tr - trill
TP - tremolo picking
T - tapping
S - slap
P - pop
< - fade in
^ - brush up
v - brush down





Comments


Popular Sammy Hagar tabs & chords
I Don't Need Love 1 Bass Tabs
I Can't Drive 55 Chords
Plain Jane Chords
Cant Get Loose Tabs
Deeper Kind Of Love Tabs
Heavy Metal 1 Tabs
I Can't Drive 5 Tabs
Sailin Tabs
Ill Fall In Love Again Ukulele
Plain Jane Ukulele


Song lyrics



↑ Back to top | Tablatures and chords are parodies/interpretations of the original songs. You may use it for private study, scholarship, research or language learning purposes only
© 2014 AZChords.com Contact us | Privacy policy | DMCA | Add/correct tabs | Request tabs | Top 50 tabs